Song name
# A B C D E F G H I J K L M N O P Q R S T U V W X Y Z

Choclair - Lets Ride tab

Help us improve GuitareTab! Take a short survey!
Author: Matt English (redwing_99@canoemail.com)

Artist: Choclair
Title: Let's Ride
Album: Ice Cold


This is a fairly easy tune. It's rap music, so naturally it
wasn't originally played on a guitar, but the transition
works nicely. I was watching the music video and I had my
guitar, and I just started playing along to the song and
it worked. As always, you should know the song before
playing it, just to get the timing right. There are a couple
different ways to play it, and I think this works best.

Nothing too fancy, as I said it's easy. Regular tuning, clean
playing.

These are the two riffs you'll play. The second one is just a
slight variation of the first one.


Riff 1

E--3-------5-3-5-------5-3-2-------2-0-------0-2--|
B--------------------------------------4---4------|
G-------------------------------------------------|
D-------------------------------------------------|
A-------------------------------------------------|
E-------------------------------------------------|


Riff 2

E--3-------5-3-5-------5-3-2-------2-0-------2-0--|
B--------------------------------------4---4------|
G-------------------------------------------------|
D-------------------------------------------------|
A-------------------------------------------------|
E-------------------------------------------------|

The two riffs continuously alternate between each other
throughout the song. 1, 2, 1, 2... You get it. Just keep
playing them back and forth, you should be able to do it
in your sleep.

Peace out!

-Matt
Related for Lets Ride tab