Song name
# A B C D E F G H I J K L M N O P Q R S T U V W X Y Z

Choke - Lost Cause tab

-------------------------------------------------------------------------------
			     LOST CAUSE - Choke
-------------------------------------------------------------------------------

Band: Choke
Song: Lost Cause
Album: Needless To Say

Tabbed By:vince
vincevideos@hotmail.com

I do not put the exact number of strums
There are two guitars

Intro:
(00:00 to 00:08)
e|---------------------------------------------------------------------------|
B|-0-0-0-0-0-0--3-3--2-------------------------------------------------------|
G|-4-4-4-4-4-4--4-4--4-------------------------------------------------------|
D|-4-4-4-4-4-4--4-4--4-------------------------------------------------------|
A|-2-2-2-2-2-2--2-2--2-------------------------------------------------------|
E|---------------------------------------------------------------------------|

Verse:
(00:09 to 00:16)
you have to mute the first notes (they are hard to hear in the song)
e|---------------------------------------------------------------------------|
B|---------------------------------------------------------------------------|
G|-4-4-4-------7-------------------------------------------------------------|
D|-4-4-4-5-x-x-7-x-x-7--7----------------------------------------------------|
A|-2-2-2-5-x-x-5-x-x-7--7----------------------------------------------------|
E|-------3-x-x---x-x-5--5----------------------------------------------------|

verse part 2:
(00:16 to 00:24)
include a lot of palm mute - fast strumming
e|---------------------------------------------------------------------------|
B|---------------------------------------------------------------------------|
G|-4-4-4-4-4-4---7-7-7-7-7-7----12-12-12-12-12-12-12-12-12-12-12-------------|
D|-4-4-4-4-4-4---7-7-7-7-7-7----12-12-12-12-12-12-12-12-12-12-12-------------|
A|-2-2-2-2-2-2---5-5-5-5-5-5----10-10-10-10-10-10-10-10-10-10-10-------------|
E|---------------------------------------------------------------------------|

verse from 00:24 to 00:33

pre-chorus:
(00:33 to 00:39)
e|---------------------------------------------------------------------------|
B|---------------------------------------------------------------------------|
G|-4-4-4-4-4-4---7-7-7-7-7-7----7-7-7-7-7-7-7-7-7-7--------------------------|
D|-4-4-4-4-4-4---7-7-7-7-7-7----5-5-5-5-5-5-5-5-5-5--------------------------|
A|-2-2-2-2-2-2---5-5-5-5-5-5----5-5-5-5-5-5-5-5-5-5--------------------------|
E|------------------------------3-3-3-3-3-3-3-3-3-3--------------------------|

chorus
(00:39 to 00:55)
e|------------------------------------|-last time instead of playing A---------|
B|------------------------------------|-----palm mute--------------------------|
G|-9-9-9-9-----------7-7-7-7----(A)---|----------------------------------------|
D|-9-9-9-9--5-5-5-5--7-7-7-7--7-7-7-7-|---7-6---9------------------------------|
A|-7-7-7-7--5-5-5-5--5-5-5-5--7-7-7-7-|---5-4-7-7------------------------------|
E|----------3-3-3-3-----------5-5-5-5-|-------5--------------------------------|

solo during chorus (100 % correct)
first time
e|---------------------------------------------------------------------------|
B|---------------------------------------------------------------------------|
G|----------9-----11-----------12--11--9-------------------------------------|
D|-9-11-12-----12-----12--9---------------12-12------------------------------|
A|---------------------------------------------------------------------------|
E|---------------------------------------------------------------------------|

second time
e|---------------------------------------------------------------------------|
B|---------------------------------------------------------------------------|
G|----------9-----11-----------14--12--11------------------------------------|
D|-9-11-12-----12-----12--9----------------12--------------------------------|
A|---------------------------------------------------------------------------|
E|---------------------------------------------------------------------------|

bridge:
a lot of palm mute on the B5
(00:55 to 01:08)
e|---------------------------------------------------------------------------|
B|---------------------------------------------------------------------------|
G|--------------------------7-7--6-4-----------------------------------------|
D|-4-4-4-4-4-4-4-4-4-4-4-4--5-5--4-2-----------------------------------------|
A|-2-2-2-2-2-2-2-2-2-2-2-2---------------------------------------------------|
E|---------------------------------------------------------------------------|

chorus from 01:08 to 01:25

outro:
e|---------------------------------------------------------------------------|
B|---------------------------------------------------------------------------|
G|--------------------9----4-----4-------------------------------------------|
D|--------------------9----4-----4-------------------------------------------|
A|-5-4-0-5-4-0-5-4-0--7----2-----2-------------------------------------------|
E|---------------------------------------------------------------------------|

===============================================================================
Tap to rate this tab
 
# A B C D E F G H I J K L M N O P Q R S T U V W X Y Z