Song name
# A B C D E F G H I J K L M N O P Q R S T U V W X Y Z

Chokebore - Ciao La tab

I'm sorry this is my first tab, I don't find the solo... In this song there are two 
riff, great sound ! See Ya !

First riff play it 6 times

E|---------------------------------------------------------|
B|---------------------------------------------------------|
G|--8-8--8-8----3-3----5-5-5-5-5-5-5-5---------------------|
D|--8-8--8-8----3-3----5-5-5-5-5-5-5-5----5-5-5-5-5-5-5-5--|
A|--6-6--6-6----1-1----3-3-3-3-3-3-3-3----5-5-5-5-5-5-5-5--|
E|----------------------------------------3-3-3-3-3-3-3-3--|

Fingers 4,3,1

Second riff

E|------------------------------------|
B|------------------------------------|
G|------------------------------------|
D|--7-7-9-7-7-7-9-7--7-7-9-7-7-7-9-7--|
A|--5-5-5-5-5-5-5-5--5-5-5-5-5-5-5-5--|
E|------------------------------------|

E|------------------------------------|
B|------------------------------------|
G|------------------------------------|
D|------------------------------------|
A|--5-5-7-5-5-5-7-5--5-5-7-5-5-5-7-5--|
E|--3-3-3-3-3-3-3-3--3-3-3-3-3-3-3-3--|


E|------------------------------------|
B|------------------------------------|
G|------------------------------------|
D|--7-7-9-7-7-7-9-7--7-7-9-7-7-7-9-7--|
A|--5-5-5-5-5-5-5-5--5-5-5-5-5-5-5-5--|
E|------------------------------------|

E|----------------------------------------|
B|----------------------------------------|
G|----------------------------------------|
D|----------------------------------------|
A|--8-8-10-8-8-8-10-8--8-8-10-8-8-8-10-8--|
E|--6-6-6--6-6-6-6--6--6-6-6--6-6-6-6--6--|

Fingers 1, 2 and 4...
Tap to rate this tab
 
# A B C D E F G H I J K L M N O P Q R S T U V W X Y Z