Song name
# A B C D E F G H I J K L M N O P Q R S T U V W X Y Z

Choking Victim - Nobody Is Free tab

NOBODY IS FREE!!! learnd by ear and it sound right but just try it
~=let ring
now i just started on this site and this is my first tab and its pretty fucking right. i 
by ear and learn by it so enjoy the good the bad and the leftover crack!!!


for the opening play verse open then for verse just palm mute

verse
e-------------------------------------|
b-------------------------------------|
g-------------------------------------|
d-----------0-4/5-0--0-6/7--0-4/5-----|
a---0-4/5-0---------------------------|
E-------------------------------------|

you have to lisen to the song for times played

chorus  (NOBODY IS FREE!!!!)
e------14--17--14--17--14~~--14--17--15--15--15~~-|
b---15---15--15--15--15-----15--15--15--15--15----|
g-------------------------------------------------|
d-------------------------------------------------|
a-------------------------------------------------|
E-------------------------------------------------|

 agian lisen to the song for play pattern

These tabs are pretty damn accurate if you ask me.
i spent alot of time playing this so enjoy it
Tap to rate this tab
# A B C D E F G H I J K L M N O P Q R S T U V W X Y Z