Song name
# A B C D E F G H I J K L M N O P Q R S T U V W X Y Z

Choking Victim - Crack Rock Steady tab

-------------------------------------------------------------------------------
                             Crack Rock Steady - Choking Victim
-------------------------------------------------------------------------------
Tabbed by: Pmdean95
E-mail: Pmdean95@gmail.com

Tuning: Half-Step Down

This Tab is very accurate if not 100% accurate. It's done by ear but I spent a lot of 
time and listened very closely so I'm confident it's correct. Enjoy!

Intro:
e|--------------------------------------------------------------------|
B|--------------------------------------------------------------------|
G|------------------------------4-------------------------------------|
D|------------------0-470-470-47-74-----------------------------------|
A|--0-470-470-470-47----------------0-470-470-470-47------------4-----|
E|--------------------------------------------------0-470-470-47-75---| x2
    . . . . . . . . . . . . . .     . . . . . . . . . . . . . .


Chorus:(skank chords)
e|--5-----2-----5-----4-----|
B|--5-x8--3-x8--5-x8--5-x8--|
G|--6-----2-----6-----4-----|
D|--------------------------|
A|--------------------------|
E|--------------------------|


Verse 1:(skank chords)
e|--5-----2-----5-----4-----|
B|--5-x8--3-x8--5-x8--5-x8--|
G|--6-----2-----6-----4-----|
D|--------------------------|
A|--------------------------|
E|--------------------------| x2


(REPEAT CHORUS)


Bridge 1:
e|--------------------------------------------------------------------|
B|--------------------------------------------------------------------|
G|--------------------------------------------------------------------|
D|------------------7777----7777--------------------9999----9999------|
A|--7777----7777----5555----5555----7777----77777---7777----7777------|
E|--5555----5555--------------------5555----55555---------------------|
    ....    ....    ....    ....    ....    .....   ....    ....
e|--------------------------------------------------------------------|
B|--------------------------------------------------------------------|
G|--------------------------------------------------------------------|
D|------------------7777----7777--------------------99--99--9-9-9-9---|
A|--7777----7777----5555----5555----7777----7777----77--77--7-7-7-7---|
E|--5555----5555--------------------5555----5555----------------------|
    ....    ....    ....    ....    ....    ....    ..  ..  . . . .


(REPEAT CHORUS)


Verse 2:(skank chords)
e|--5-----2-----5-----4-----|
B|--5-x8--3-x8--5-x8--5-x8--|
G|--6-----2-----6-----4-----|
D|--------------------------|
A|--------------------------|
E|--------------------------| x2


(REPEAT CHORUS)


Bridge 2:
e|--------------------------------------------------------------------|
B|--------------------------------------------------------------------|
G|--------------------------------------------------------------------|
D|------------------7777----7777--------------------9999----9999------|
A|--7777----7777----5555----5555----7777----77777---7777----7777------|
E|--5555----5555--------------------5555----55555---------------------|
    ....    ....    ....    ....    ....    .....   ....    ....
e|--------------------------------------------------------------------|
B|--------------------------------------------------------------------|
G|--------------------------------------------------------------------|
D|------------------7777----7777--------------------99--99--9-9-9-9---|
A|--7777----7777----5555----5555----7777----7777----77--77--7-7-7-7---|
E|--5555----5555--------------------5555----5555----------------------|
    ....    ....    ....    ....    ....    ....    ..  ..


Last Chorus:(skank chords)                    .
e|--5-----2-----5-----4-----5-----2-----5-----4--|
B|--5-x8--3-x8--5-x8--5-x8--5-x8--3-x8--5-x8--5--|
G|--6-----2-----6-----4-----6-----2-----6-----4--|
D|-----------------------------------------------|
A|-----------------------------------------------|
E|-----------------------------------------------|


Outro:(skank chords)  .
e|--5-----2-----5-----4-----|
B|--5-x8--3-x8--5-x8--5-----|
G|--6-----2-----6-----4-----|
D|--------------------------|
A|--------------------------|
E|--------------------------| x2


End:   .
e|--5555--|
B|--5555--|
G|--6666--|
D|--------|
A|--------|
E|--------|


************************************
  .
|     Staccato note
| /   Slide up
| \   Slide down
| h   Hammer-on
| p   Pull-off
| ~   Vibrato
| +   Harmonic
| x   Mute note
| b   Bend
| pb  Pre-bend
| br  Bend release
| pbr Pre-bend release
| brb Bend release bend
| .   Palm muted note

************************************
Tap to rate this tab
# A B C D E F G H I J K L M N O P Q R S T U V W X Y Z