Song name
# A B C D E F G H I J K L M N O P Q R S T U V W X Y Z

Choking Victim - Choking Victim tab

----------------------------------------------------------------------------
			Choking Victim - Choking Victim
----------------------------------------------------------------------------
Tabbed by:crackdaddycaine
Email:crackdaddycaine@hotmail.com


Verse
e|--3-3-3--5-5--3-3-3-3--------------------------
B|--5-5-5--7-7--3-3-3-3--------------------------
G|--5-5-5--7-7--4-4-4-4--------------------------
D|--------------5-5-5-5--------------------------
A|-----------------------------------------------
E|-----------------------------------------------


Chorus
e|----------------------------------------------------------------------
B|----------------------------------------------------------------------
G|--5-5-5-5-7-7-7-7-----------------------------------------------------
D|--5-5-5-5-7-7-7-7-5-5-5-5-5-5-5-5-------------------------------------
A|--3-3-3-3-5-5-5-5-5-5-5-5-5-5-5-5-------------------------------------
E|------------------3-3-3-3-3-3-3-3-------------------------------------

thats it, only 2 parts
Tap to rate this tab
# A B C D E F G H I J K L M N O P Q R S T U V W X Y Z