Song name
# A B C D E F G H I J K L M N O P Q R S T U V W X Y Z

Choking Victim - In My Grave tab

Tabbed By : NauseaPunk

Intro
G|-----------------------|
D|-----------------------|
A|------------55555555---|
E|-0/66666666------------|

Verse
G|------------------------------------7-5---I----------------------|
D|--------------------------7-------------7-I--5-5-5-5-6-5-6-5-----|
A|-------8---------8--5-5-5---5-5-5-5-------I----------------------|
E|-6-6-6---6-6-6-6--------------------------I----------------------|

Chorus
G|--------------------------------------|
D|--------------------------------------|
A|------------6-6-5-5-5-6-5-5-5-5-6-5---|
E|--44444444----------------------------|

Instrumental part around 1:57
G|----------------------------------------------------------------------|
D|----------------------------------------------------------------------|
A|---5-5-5-6-5-5-5-5-6-5-5-5-5-6-5-5-5-5-6------------------------------|
E|----------------------------------------------------------------------|

G|------------------------------------7-5---I----------------------|
D|--------------------------7-------------7-I--5-5-5-5-6-5-6-5-----|
A|-------8---------8--5-5-5---5-5-5-5-------I----------------------|
E|-6-6-6---6-6-6-6--------------------------I----------------------|

thats pretty much the whole song, listen to it for the exact number of everything
Tap to rate this tab
# A B C D E F G H I J K L M N O P Q R S T U V W X Y Z