Song name
# A B C D E F G H I J K L M N O P Q R S T U V W X Y Z

Choking Victim - Fucked Reality tab

Written by Scott Sturgeon, tabbed by JesusOfSbrbia

Album:  No Gods, No Mangers (Hell-Cat Records, 1999)

Intro
e|---------------------|
B|---------------------|
G|---11----9-----------|
D|-9-11-11-9-----------|
A|-9--9-11-7-----------|
E|-7-----9-------------|

Verse/Chorus
e|-----------------------|
B|-----------------------|
G|-4-----6---------------|
D|-4--4--6--2------------|
A|-2--4--4--2------------|
E|-2--2--4--0------------|

^ That extra note below the B5 chord and the C#5 chord gives it that menacing 
sound.  This is played by one or both guitars throughout the song, but NOT during the intro.
Tap to rate this tab
# A B C D E F G H I J K L M N O P Q R S T U V W X Y Z