Song name
# A B C D E F G H I J K L M N O P Q R S T U V W X Y Z

Chosen - Grace tab

guitar 1
Intro/Verse

d|---------------------------------------------------|
a|----0----0----0--7*--7*------12*-------------------|
f|---0----0-0--0-----7*--7*-12*----------------------|
c|--2------------------------------------------------|
g|-------2----3--------------------------------------|
c|---------------------------------------------------|

Chorus

d|---------------------------------------------------|
a|---------------------------------------------------|
f|------7--8--9----12--3----2/3----------------------|
c|-5----7--8--9----12--3----2/3----------------------|
g|-5----5--6--7----10--5----4/5----------------------|
c|-5-------------------------------------------------|

verse
chorus

bridge

d|---------------------------------------------------|
a|---------------------------------------------------|
f|---------------------------------------------------|
c|-2-2xx2--0-0xx0--10-10xx10--12---------------------|
g|-2-2xx2--0-0xx0--10-10xx10--12---------------------|
c|-2-2xx2--0-0xx0--10-10xx10--12---------------------|x2


chorus x2
outro same as chorus

guitar 2

chorus x2

d|---------10-----7---------------------------------|
a|-8-8-8-7----8-8---8-8-10-8-7----------------------|
f|-----------------------------9-7-9----------------|
c|--------------------------------------------------|
g|--------------------------------------------------|
c|--------------------------------------------------|

d|---------10-----7---------------------------------|
a|-8-8-8-7----8-8---8-8-9-9-8-8-7~------------------|
f|--------------------------------------------------|
c|--------------------------------------------------|
g|--------------------------------------------------|
c|--------------------------------------------------|

d|---------10-----7----------------------------------|
a|-8-8-8-7----8-8---8-8-10-8-7-----------------------|
f|-----------------------------9-7-9-----------------|
c|---------------------------------------------------|
g|---------------------------------------------------|
c|---------------------------------------------------|

d|---------------------------------------------------|
a|-8-8-8/12-12-12-12-12-10-10-10-10-10b(11)r10-8~~---|
f|---------------------------------------------------|
c|---------------------------------------------------|
g|---------------------------------------------------|
c|---------------------------------------------------|

Bridge
slow tremolo pick

d|-------------------------------------15\-----------|
a|-8--10--12--15----8--10--12--15--17----------------|
f|---------------------------------------------------|
c|---------------------------------------------------|
g|---------------------------------------------------|
c|---------------------------------------------------|

outro

d|---------------------------------------------------|
a|-15-15-15-15-15-15-15-15-13-13-13-13-12-12-12-12---|
f|--x--x--x--x--x--x--x--x--x--x--x--x--x--x--x--x---|
c|-12-12-12-12-12-12-12-12-10-10-10-10--9--9--9--9---|
g|---------------------------------------------------|
c|---------------------------------------------------|x2

d|---------------------------------------------------|
a|-17-17-17-17-17-17-17-17-15-15-15-15-13-13-13-13---|
f|--x--x--x--x--x--x--x--x--x--x--x--x--x--x--x--x---|
c|-14-14-14-14-14-14-14-14-12-12-12-12-10-10-10-10---|
g|---------------------------------------------------|
c|---------------------------------------------------|

d|-----------------------------------------------------------------|
a|-20-20-20-20-20-20-20-20-20-20-20-20-20-20-20-20--20-20-xx-20~---|
f|--x--x--x--x--x--x--x--x--x--x--x--x--x--x--x--x---x--x-xx--x----|
c|-17-17-17-17-17-17-17-17-17-17-17-17-17-17-17-17--17-17-xx-17~---|
g|-----------------------------------------------------------------|
c|-----------------------------------------------------------------|


www.myspace.com/thegenerationchosen
Tap to rate this tab
 
# A B C D E F G H I J K L M N O P Q R S T U V W X Y Z