Song name
# A B C D E F G H I J K L M N O P Q R S T U V W X Y Z

Chris And Carla - At The Twilights Last Gleaming tab

Song: At the Twilight's Last Gleaming
Artist: Chris & Carla
Album: Fly High Brave Dreamers
Tabbed by: Rehmer (Rehmeronsolos)


Tuning: Standard (EADGBe)
Capo: 3rd

(0:14)          (0:27)
e|--3---3----|  e|--3---3---3---3---3--|
B|--3---3----|  B|--3---3---3---3---3--|	
G|--0---0----|  G|--0---0---2---0---0--|
D|--0---2----|  D|--0---2---2---2---0--|
A|--2---2----|  A|--2---2---0---3---2--|
E|--3---0----|  E|--3---0---0---x---x--|

(0:41)
e|--3---3---3---3---3--|
B|--3---3---3---3---3--|	
G|--0---0---0---0---2--| 2x
D|--0---2---2---0---2--|
A|--2---2---3---2---0--|
E|--3---0---x---x---x--|

(1:09)
e|--3---3---3---3---2---3---3---3---3--|
B|--3---3---3---3---3---3---3---3---3--|	
G|--0---0---0---0---2---2---0---0---2--|
D|--2---2---0---2---0---2---2---0---2--|
A|--2---3---2---0---x---0---3---2---0--|
E|--0---x---x---x---x---x---x---x---x--|

(1:31)                        (1:44)
e|--3---3---3---3---3---3--|  e|--3---3---3---3---3--|
B|--3---3---3---3---3---3--|  B|--3---3---3---3---3--|	
G|--0---0---2---0---0---2--|  G|--0---0---0---0---2--|
D|--0---2---2---2---0---2--|  D|--0---2---2---0---2--| 2x
A|--2---2---0---3---2---0--|  A|--2---2---3---2---0--|
E|--3---0---0---x---x---x--|  E|--3---0---x---x---x--|

(2:12)
e|--3---3---3---3---2---3---3---3---3--|
B|--3---3---3---3---3---3---3---3---3--|	
G|--0---0---0---0---2---2---0---0---2--|
D|--2---2---0---2---0---2---2---0---2--|
A|--2---3---2---0---x---0---3---2---0--|
E|--0---x---x---x---x---x---x---x---x--|

(2:32)                        (2:46)
e|--3---3---3---3---3---3--|  e|--3---3---3---3---3--|
B|--3---3---3---3---3---3--|  B|--3---3---3---3---3--|	
G|--0---0---2---0---0---2--|  G|--0---0---0---0---2--|
D|--0---2---2---2---0---2--|  D|--0---2---2---0---2--|
A|--2---2---0---3---2---0--|  A|--2---2---3---2---0--|
E|--3---0---0---x---x---x--|  E|--3---0---x---x---x--|
 
(3:00)			   
e|--3---3---3---3--|	   		
B|--3---3---3---3--|	   
G|--0---0---2---0--| 2x	   
D|--0---2---2---2--|	   
A|--2---2---0---3--|	   
E|--3---0---x---x--|	   

2. Guitar (3:28)    (3:42)              (3:53)
e|-----------|      e|-----------|      e|-------|
B|--5-4-2-4--|      B|--9-8-5-4--|      B|--5-4--|
G|-----------| 2x   G|-----------| 3x   G|-------| 2x
D|-----------|      D|-----------|      D|-------|
A|-----------|      A|-----------|      A|-------|
E|-----------|      E|-----------|      E|-------|

(3:56)
e|--3---3---3---3---3---3---3--|
B|--3---3---3---3---3---3---3--|	
G|--0---0---2---0---0---2---0--| let ring
D|--0---2---2---2---0---2---0--| 
A|--2---2---0---3---2---0---2--|
E|--3---0---x---x---x---x---3--|
Tap to rate this tab
 
# A B C D E F G H I J K L M N O P Q R S T U V W X Y Z