Song name
# A B C D E F G H I J K L M N O P Q R S T U V W X Y Z

Chris And Conrad - Rescue chords

Highlighted       Show chord diagrams
This is my FIRST tab.

Normal EADGBe tuning
Capo 2nd Fret

Intro: Dsus4

VERSE 1
                      Dsus4 G                  Dsus4    D
I've walked through the valley, been tossed in the storm
                 G          Dsus4          G   Dsus4  
and all of the demons were coming for more
             G                          Dsus4
the only way I made it out, I was alone
                  C                         Dsus4
You came to my rescue so I could make it home

CHORUS**
Dsus4                G
You've got me falling
                     Dsus4
More in love with you
                        G
You've got me wrapped up
         Dsus4
I can barely even move

VERSE 2

Dsus4
Even the good days
                 G
Can fade into black
                    Dsus4
Yeah, it can all change
          G                           Dsus4
it can happen so fast, so fast, so fast
                     G
I never even had a chance
               Dsus4
If i was alone,
                         G                     Dsus4
If there was no rescue, I could never make it home

Repeat CHORUS

BRIDGE
              Em
When no one could find me
        Dsus4
And everyone else had already moved on
Em
You kept on reaching out
        Dsus4                                 C
You never gave up on me even when hope was gone

Chorus


This is the piano outro (although it is also heard once or twice throughout the song). 
These notes are counted from the TOP of the guitar, not from the capo.

e|-------------------------------------------------|
B|-----7-9-10-------7-9-10-------7-9-10----9-10----|
G|------------6-6----------6-6---------6-6---------|
D|-------------------------------------------------|    
A|-------------------------------------------------|
E|-------------------------------------------------|


e|----------------------------------------7--------|
B|-----7-9-10-------7-9-10-----7-9-10---9----------|
G|------------6-6----------6----------6------------|
D|-------------------------------------------------|   
A|-------------------------------------------------|
E|-------------------------------------------------|


**The first time he plays the chorus it sounds like he strums downward very slowly on Dsus2

Corrections, questions or comments?
Mark Palmer - xenisos@hotmail.com
Tap to rate this tab
 
# A B C D E F G H I J K L M N O P Q R S T U V W X Y Z