Song name
# A B C D E F G H I J K L M N O P Q R S T U V W X Y Z

Chris August - 7x70 Acoustic tab

This is the intro for 7x70 played by Chris August viewed here: 
http://www.youtube.com/watch?v=E80a-kpho4Yhttp://www.youtube.com/watch?v=E80a-kpho4Y

Capo 4

E|----------------------------------------------------|
B|--0-----0------------------------3/5-0-----3--------|
G|--0---0---0--0h2-----2p0---------------2/4-4\2-0----|
D|----0------------0---------0h2----------------------|
A|-------------3-----0--------------------------------|
E|--3------------------------0---0--------------------|

E|----------------------------------------------------|
B|--0-----0------------------------3/5-0-----3--3-----|
G|--0---0---0--0h2-----2p0---------------2/4-4--4\2-2-|
D|----0------------0---------0h2----------------------|
A|-------------3-----0--------------------------------|
E|--3------------------------0---0--------------------|


I'm sorry if the tab isn't that well made, it is my first tab.
Tap to rate this tab
 
# A B C D E F G H I J K L M N O P Q R S T U V W X Y Z