Song name
# A B C D E F G H I J K L M N O P Q R S T U V W X Y Z

Chris Bacon - Regret And Reconciliation tab

Chris Bacon - Regret and Reconciliation
"Source Code" soundtrack
2011


E:-----------------------------------------------------------------------------|
B:-----------------------------------------------------------------------------|
G:--------10-8--------10-12-----------------10----8-----------------10----12---|
D:--10-12-------10-12-----------10----12----------------10----12---------------|
A:---------------------------------10----10----10----------10----10----10------|
C:-----------------------------------------------------------------------------|



E:-----------------------------------------------------------------|
B:-----------------------------------------------------------------|
G:--------------10----8----------------10----12--------------------|
D:-10----12--------10------10----12-------10-----------------------|
A:----12----15----------------12----15-----------------------------|
C:-----------------------------------------------------------------|



E:-----------------------------------------------------------------|
B:-----------------------------------------------------------------|
G:--17----15--------------------------------10-8--------10-12------|
D:---------------17----13-----10------10-12-------10-12------------|
A:-----18----18-----15----13--8------------------------------------|
C:-----------------------------------------------------------------|



E:--------------13----------------------13----15-------------------|
B:--13----15----------16----13----15-------------------------------|
G:-----13----13----13----------13----13----13----------------------|
D:-----------------------------------------------------------------|
A:-----------------------------------------------------------------|
C:-----------------------------------------------------------------|



E:---------------------------------------------------|
B:-1--3----------6---4------------------6----8-------|
G:-------5---7----------------5---7-------5--8-------|
D:---------5---5---8------------7---10---------------|
A:---------------------------------------------------|
C:-0--2----------------------------------------------|



E:----------------------16-18---------------------------------------|
B:------------------------------------------------------------------|
G:----<5>-----------<5>----------13-11--------13-11-15--------------|
D:-10-----10---8-10--------------------10---------------------------|
A:-----------------------------------------12-----------------------|
c:------------------------------------------------------------------|



E:----------------------------------------------------------------------------|
B:----------------------------------------------------------------------------|
G:--------13----13----------13----15-----13-15-13-15-13-------13----13--------|
D:-----17----17----17----17----17--------------------------15----17----17-----|
A:-15-----------------15--------------15----------------15--------------------|
C:-0--------------------------------------------------------------------------|


http://www.imdb.com/name/nm2092016/
Tap to rate this tab
 
# A B C D E F G H I J K L M N O P Q R S T U V W X Y Z