Song name
# A B C D E F G H I J K L M N O P Q R S T U V W X Y Z

Chris Bathgate - Serpentine tab

-------------------------------------------------------------------------------
			     Serpentine - Chris Bathgate
-------------------------------------------------------------------------------

Other tab didn't seem quite right.
First part would be the melody, second part is what he plays with his left hand. I'm 
pretty sure it's right, but I know you musically gifted people with keyboards can figure it 
out... ;)
Don't email me, I won't respond. You can skype me though...

Tabbed by: jvali10
Email: jvali10@aol.com

Tuning: EADGBe (standard)
Capo: 3
h - hammer on
p - pull off
b - bend


CAPO ON THE 3rd FRET!!!
e|-2-2-2p0-6-6-6-----:||---------------------------------------------------|
B|-3-------6-----8-6-:||---------------------------------------------------|
G|-2-------7---------:||---------------------------------------------------|
D|-0-------8---------:||---------------------------------------------------|
A|-0-------8---------:||---------------------------------------------------|
E|---------6---------:||---------------------------------------------------|





NO CAPO ON THIS NEXT PART!!!
   This reapeats during verses    This part starts on the ooo's.
e|-1-------0----------------------|-1----1----5----3----------------------|
B|-1-------1----------------------|-1----3----5----3----------------------|
G|-2-------0----------------------|-2----3----5----4----------------------|
D|-3-------2----------------------|-3----3----7----5----------------------|
A|-3-------3----------------------|-3----1----7----5----------------------|
E|-1-------3----------------------|-1----1----5----3----------------------|




Just for kicks I added in the two trumpet parts.
He uses both parts multiple times.
NO CAPO!!!
e|----5-13-12(let ring)---5-13-12-13-12-------------------|----------------|
B|--6-------------------6----------------14-12b-----------|----------------|
G|------------------------------------------------(repeat)|----------------|
D|--------------------------------------------------------|----------------|
A|--------------------------------------------------------|----------------|
E|--------------------------------------------------------|----------------|

e|---5------------------5-----------------------|--------------------------|
B|-6----8(let ring)---6---8--10-8-6-5-----------|--------------------------|
G|--------------------------------------(repeat)|--------------------------|
D|----------------------------------------------|--------------------------|
A|----------------------------------------------|--------------------------|
E|----------------------------------------------|--------------------------|




There you have it. Pretty basic tab of this song, but it sounds right.

If you want, I can come play it for you?
Tap to rate this tab
 
# A B C D E F G H I J K L M N O P Q R S T U V W X Y Z