Song name
# A B C D E F G H I J K L M N O P Q R S T U V W X Y Z

Chris Brown - Take You Down tab

this is actually my second song i put on here 
to get to sound like how thet play it on the song set your amp and guitar to:
 (amp)
gain:10
bass:10
middle:7
treble:4
volume: as loud as you want it
reverb:2

(guitar)
volume:7
tone:10
pickups:with a 5 pick up changer from left right have it on the one to the far right

/=slide up 
\=slide down
w=wammy bar
b=bend
sb=slightly bend
h=hammer on
p=pull off

|---14sb-------------12p10h12-------------------17-----12|
|------------------------------12p10h12w-----------10----|
|--------------------------------------------------------|
|--------------------------------------------------------|
|--------------------------------------------------------|
|--------------------------------------------------------|



  here we are all alone in this room (ooh)
  and girl i know were the start of what were going to do (yeah)
  ill take my time well be all night girl
  so get ready baby i got plans for me and you



|--------------------|
|--------------------|
|--------------------|
|---16--14--19--16---|
|--------------------|
|--------------------|

it aint my first time but baby girl we can just pretend it
lets bump and grind and girl tonight it never ends

|--14--14--12--12--14-----------------------|
|----------------------12--10--10-12-15-----|
|-------------------------------------------|
|-------------------------------------------|
|-------------------------------------------|
|-------------------------------------------|

|--14--14--12--12--14--17--1412---|
|---------------------------------|
|---------------------------------|  x2
|---------------------------------|
|---------------------------------|
|---------------------------------|

let me take you down i really wanna take you down
and show you what im about
and when i take you down your body body oh your body body up and down 
so dont stop go get it quit playing with it cant wait no more
i wanna take you down i really wanna take you down take you down

pretty girl lets take it off in this room
no time to waste girl you know what we came here to do (wo wo wo wooah)
we got all night to try to get it right girl (i hope your ready x3)
i hope youre ready baby because here we go you know how we do

it aint my first time but baby girl we can pretend it
lets bump and grind and girl tonight it never ends
let me take you down i really wanna take you down
and show you what im about
and when i take you down your body body oh your body body up and down
so dont stop go get it quit playing with it cant wait no more
  
you freaking no baby like a pro baby
you thinking no baby like your grown baby 
so what you gonna do 
imma take you down baby nice and slow so bring it lets go baby

(solo)
|-----------------------14-12-1714-14h12---1214151719---15--21--17--24-|
|--10b--------12h10h12-------------------------------------------------|
|----------------------------------------------------------------------|
|----------------------------------------------------------------------|
|----------------------------------------------------------------------|
|----------------------------------------------------------------------|


|---24222022201820181618161412--------------|
|-------------------------------------------|
|-------------------------------------------|
|-------------------------------------------|
|-------------------------------------------|
|-------------------------------------------|

let me take you down i really wanna take you down 
and show what im about
and when i take you down your body body oh your body body up and down
so dont stop go get it quit playing with it i cant wait no more
i wanna take you down i really wanna take you down take you down

and thats pretty much it
if i missed some thing let me know at devaughnhall@yahoo.com
dueces
Tap to rate this tab
# A B C D E F G H I J K L M N O P Q R S T U V W X Y Z