Song name
# A B C D E F G H I J K L M N O P Q R S T U V W X Y Z

Chris Brown - Gimme That tab

Song: Gimme That
Track: 5
Artist: Chris Brown
Album: Chris Brown
Tabbed by: Roberto Aleman
Email: Roberto0331@gmail.com

Tuning: Standard (EADGBe)

Notes: Timing is everything if you want the song to sound correctly. Just repeat it 
and there you have your intro.

e|-----------------------|
B|------7---7-10-9-7-7---|
G|--6-7---7--------------|
D|-----------------------|
A|-----------------------|
E|-----------------------|

e|-----------------------|
B|------7---7-10-9-7-7---|
G|--6-7---7--------------|
D|-----------------------|
A|-----------------------|
E|-----------------------|

e|------7---7-10-9-7-7---|
B|----7---7--------------|
G|--7--------------------|
D|-----------------------|
A|-----------------------|
E|-----------------------|

e|---------------10--10--10--9---|
B|------7---7-10-----------------|
G|--6-7---7-------7---7---7--6---|
D|-------------------------------|
A|-------------------------------|
E|-------------------------------|


======================
Tablature Explanation
======================
| /  Slide up
| \  Slide down
| h  Hammer-on
| p  Pull-off
| ~  Vibrato
| +  Harmonic
| x  Mute note
======================
Tap to rate this tab
 
# A B C D E F G H I J K L M N O P Q R S T U V W X Y Z