Song name
# A B C D E F G H I J K L M N O P Q R S T U V W X Y Z

Chris Brown - Say Goodbye tab

e |---------------------------|
b |2----2-1---4h6-7--4-7-6-4/2|
g |---3------1----------------|
d |---------------------------|
a |---------------------------|
e |---------------------------|

e |---------------------------|
b |2----2-1---4h6-7----7-6-4/2|
g |---3------1-------6--------|
d |---------------------------|
a |---------------------------|
e |---------------------------|

e |-------------------------------4--------4-4---------|
b |2----2---1---4h6-7--4-7-6--4/2----2---2---1--4------|
g |---3---3---1-------------------1----3----------5-3h5|
d |----------------------------------------------------|
a |----------------------------------------------------|
e |----------------------------------------------------|
 
Repeats throughout whole song
Tap to rate this tab
 
# A B C D E F G H I J K L M N O P Q R S T U V W X Y Z