Song name
# A B C D E F G H I J K L M N O P Q R S T U V W X Y Z

Chris Brown - I Can Transform Ya tab

-------------------------------------------------------------------------------
			                     I CAN TRANSFORM YA - Chris Brown
					                           off "Graffiti (2010)"
-------------------------------------------------------------------------------
Tabbed by: Kevin Heiland (KevyAbsolution)
Email: kevin.heiland@gmail.com
Notes: Really simple song. Just a few power chords and some small licks. Most
repeat a few times. Nothing difficult, but I like the song, so here's just one  
more tab.

Tuning: DADGBE

"Need a ride, I can range you up..." (0:34)

e|---------------------------|
B|---------------------------|
G|---------------------------|
D|--3-3----------------------|
A|--3-3----------------------|
D|--3-3----------------------|

"I can transform ya, I can transform ya." (0:57)

e|---------------------------|
B|---------------------------|
G|------------------4/5------|
D|--------3-3--3-3--x-x------|
A|--2b3~--3-3--3-3--2/3------|
D|--------3-3--3-3-----------|

"I can trans, I can trans, I can transform ya." (1:07)

e|----------------------------|
B|----------------------------|
G|----------------------------|
D|-2h3--2/3-3-3---------------|
A|------2/3-3-3---------------|
D|------2/3-3-3---------------|

"Anything you want, I can I can get it for you. (1:18)

e|----------------------------|
B|----------------------------|
G|---4h5-5-5-5-3-1-3-1-3------|
D|-----------------------3~---|
A|----------------------------|
D|----------------------------|

And that's it. Those licks repeat through the song while the whole tune revolves
around a G minor chord.
************************************
Tap to rate this tab
# A B C D E F G H I J K L M N O P Q R S T U V W X Y Z