Song name
# A B C D E F G H I J K L M N O P Q R S T U V W X Y Z

Chris Brown - Forever tab

                           ||FOREVER - CHRIS BROWN||
                        ||TABBED BY: MAXWELL HALWWACHS||
                              ||AKA maxxywaxxy||
                              ||&AKA @IsMaxxeh||




e---12-11------12-11------12-11---------12-12-11------------------|
B---------12---------14---------12---12-----------12/14-----------|
G-----------------------------------------------------------------|
D-----------------------------------------------------------------|
A-----------------------------------------------------------------|
E-----------------------------------------------------------------|


e-----------------------12-11-----12-11---------12-12-11----------|
B---12-14-14/16-14-12---------14--------12---12-------------12/14-|
G-----------------------------------------------------------------|
D-----------------------------------------------------------------|    X2
A-----------------------------------------------------------------|
E-----------------------------------------------------------------|

THEN...
                 "IT'S YOU AND ME, MOVIN' AT THE SPEED OF LIGHT..."       
e--------------------------12-12-11-----------------------------------|
B---12-14-14/16-14-12---12---------(12/14)----------------------------|
G---------------------------------------------------------------------|
D---------------------------------------------------------------------|
A---------------------------------------------------------------------|
E---------------------------------------------------------------------|



                                 OR


                            (CAPO 4TH FRET)

e----------------------------------------|
B---1-0----1-0-----1-0-------1-1-0-------|
G-------0------2-------0---0-------0h2---|
D----------------------------------------|
A----------------------------------------|
E----------------------------------------|


e---------------------------------------------|
B-----------------1-0----1-0------1-1-0-------|
G---0-2-2/4-2-0-------2------0--0-------0h2---|
D---------------------------------------------|    X2
A---------------------------------------------|
E---------------------------------------------|

THEN...
                                        "IT'S YOU AND ME,
                                          MOVIN' AT THE SPEED OF LIGHT..."
e------------------------------------------------------------------------|
B-----------------1-0----1-0------1-1-0----------------------------------|
G---0-2-2/4-2-0-------2------0--0-------(0h2)----------------------------|
D------------------------------------------------------------------------|
A------------------------------------------------------------------------|
E------------------------------------------------------------------------|


This is my first tab so please be nice in the comments(:
If you have any questions or tips, email me at cra.cra.cra.crazy.chicken@gmail.com
Tap to rate this tab
# A B C D E F G H I J K L M N O P Q R S T U V W X Y Z