Song name
# A B C D E F G H I J K L M N O P Q R S T U V W X Y Z

Chris Brown - I Can Transform Ya Acoustic tab

This is CP and Joey Diamond's acoustic version of I Can Transform Ya: 
http://www.youtube.com/watch?v=B5tkI6jtEiU

Intro:
     (F)
e---------------------------------------------------------------------------|
b---------------------------------------------------------------------------|
g---------------------------------------------------------------------------|
d-----3--3---------3--3---------3--3-3-------3--3---------3--3---------3--3-|
a---3--3---------3--3---------3--3---------3--3---------3--3---------3--3---|
E-1------------1------------1------------1------------1------------1--------|

e--------------------------|
b--------------------------|
g--------------------------|
d---3--3--3--3--3--3--3--3-|
a-3--3--3--3--3--3--3--3---|
E--------------------------|

Verse and Chorus: (Repeat through whole song)

e--------------------------------------------------------------------------|
b--------------------------------------------------------------------------|
g--------------------------------------------------------------------------|
d-3-3-3-3-x--3-3-3-3-x--3-3-3-3-x--3-3-3-3-x--3-3-3-3-x--3-3-3-3-x--3x-----|
a-3-3-3-3-x--3-3-3-3-x--3-3-3-3-x--3-3-3-3-x--3-3-3-3-x--3-3-3-3-x--3x-----|
E-1-1-1-1-x--1-1-1-1-x--1-1-1-1-x--1-1-1-1-x--1-1-1-1-x--1-1-1-1-x--1x-----|
   
Tap to rate this tab
# A B C D E F G H I J K L M N O P Q R S T U V W X Y Z