Song name
# A B C D E F G H I J K L M N O P Q R S T U V W X Y Z

Chris Brown - With You Acoustic tab

OK, this is how it works. I put the exact words at which the sections change just on top 
each section as played in the tab... The strumming pattern is there too. That's just 
way I play it. Enjoy :)


I need your boo...
 \ \ \ \/ \  \ \ \ \/ \  \ \ \ \/ \  \ \ \ \/ \
|0-0-0-00-0--0-0-0-00-0--0-0-0-00-0--0-0-0-00-0-|
|0-0-0-00-0--0-0-0-00-0--5-5-5-55-5--0-0-0-00-0-|
|9-9-9-99-9--8-8-8-88-8--6-6-6-66-6--8-8-8-88-8-|
|9-9-9-99-9--9-9-9-99-9--7-7-7-77-7--9-9-9-99-9-|
|7-7-7-77-7--7-7-7-77-7--0-0-0-00-0--9-9-9-99-9-|
|------------------------------------7-7-7-77-7-|

You mean to me...
 \ \  \  /\ \  \ \ \ \/ \
|0-0--0--00-0--0-0-0-00-0--|
|0-0--0--00-0--0-0-0-00-0--|
|2-2-2>4-44-4--4-4-4-44-4--|
|2-2-2>4-44-4--2-2-2-22-2--|
|0-0-0h2-22-2--x-x-0-00-0--|
|--------------4-4---------|

Cause if I got u...
 \ \  \  /\ \  \ \ \ \/ \  \ \ \ \/ \
|0-0--0--00-0--0-0-0-00-0--0-0-0-00-0-|
|0-0--0--00-0--5-5-5-55-5--0-0-0-00-0-|
|2-2-2>4-44-4--6-6-6-66-6--3-3-3-33-3-|
|2-2-2>4-44-4--6-6-6-66-6--4-4-4-44-4-|
|0-0-0h2-22-2--4-4-4-44-4--4-4-4-44-4-|
|--------------------------2-2-2-22-2-|

(no vocals from hook to chorus)
 \ \  \ \/ \
|0-0--0-00-0|
|0-0--0-00-0|
|2-2--4-44-4|
|2-2--4-44-4|
|0-0--2-22-2|
|-----------|

And oh, I'm into you...
 \ \ \ \/ \  \ \ \ \/ \  \ \ \ \/ /  \ \ \ \/ \
|0-0-0-00-0--0-0-0-00-0--0-0-0-00-0--0-0-0-00-0--|
|0-0-0-00-0--0-0-0-00-0--0-0-0-00-0--0-0-0-00-0--|
|1-1-1-11-1--8-8-8-88-8--6-6-6-66-6--8-8-8-88-8--|
|2-2-2-22-2--9-9-9-99-9--7-7-7-77-7--9-9-9-99-9--|
|2-2-2-22-2--9-9-9-99-9--7-7-7-77-7--9-9-9-99-9--|
|0-0-0-00-0--7-7-7-77-7--5-5-5-55-5--7-7-7-77-7--|

With you, with you...
 \ \  \  /\ \  \ \ \ \/ \
|0-0--0--00-0--0-0-0-00-0--|
|0-0--0--00-0--0-0-0-00-0--|
|2-2-2>4-44-4--4-4-4-44-4--|
|2-2-2>4-44-4--2-2-2-22-2--|
|0-0-0h2-22-2--x-x-0-00-0--|
|--------------4-4---------|

I don't want nobody else...
 \ \ \ \/ \  \ \ \ \/ \  \ \ \ \/ \  \ \ \ \/ \
|0-0-0-00-0--0-0-0-00-0--0-0-0-00-0--0-0-0-00-0-|
|0-0-0-00-0--0-0-0-00-0--5-5-5-55-5--0-0-0-00-0-|
|9-9-9-99-9--8-8-8-88-8--6-6-6-66-6--8-8-8-88-8-|
|9-9-9-99-9--9-9-9-99-9--7-7-7-77-7--9-9-9-99-9-|
|7-7-7-77-7--7-7-7-77-7--0-0-0-00-0--9-9-9-99-9-|
|------------------------------------7-7-7-77-7-|

You mean to me...
 \ \  \  /\ \  \ \ \ \/ \
|0-0--0--00-0--0-0-0-00-0--|
|0-0--0--00-0--0-0-0-00-0--|
|2-2-2>4-44-4--4-4-4-44-4--|
|2-2-2>4-44-4--2-2-2-22-2--|
|0-0-0h2-22-2--x-x-0-00-0--|
|--------------4-4---------|

And oh, I'm into you...
 \ \ \ \/ \  \ \ \ \/ \  \ \ \ \/ /  \ \ \ \/ \
|0-0-0-00-0--0-0-0-00-0--0-0-0-00-0--0-0-0-00-0--|
|0-0-0-00-0--0-0-0-00-0--0-0-0-00-0--0-0-0-00-0--|
|1-1-1-11-1--8-8-8-88-8--6-6-6-66-6--8-8-8-88-8--|
|2-2-2-22-2--9-9-9-99-9--7-7-7-77-7--9-9-9-99-9--|
|2-2-2-22-2--9-9-9-99-9--7-7-7-77-7--9-9-9-99-9--|
|0-0-0-00-0--7-7-7-77-7--5-5-5-55-5--7-7-7-77-7--|

With you, with you...
 \ \  \  /\ \  \ \ \ \/ \
|0-0--0--00-0--0-0-0-00-0--|
|0-0--0--00-0--0-0-0-00-0--|
|2-2-2>4-44-4--4-4-4-44-4--|
|2-2-2>4-44-4--2-2-2-22-2--|
|0-0-0h2-22-2--x-x-0-00-0--|
|--------------4-4---------|

And now...
 \ \ \ \/ \  \ \ \ \/ \  \ \ \ \/ \
|0-0-0-00-0--0-0-0-00-0--0-0-0-00-0--|
|0-0-0-00-0--5-5-5-55-5--0-0-0-00-0--|
|2-2-2-22-2--6-6-6-66-6--4-4-4-44-4--|
|2-2-2-22-2--6-6-6-66-6--4-4-4-44-4--|
|0-0-0-00-0--4-4-4-44-4--2-2-2-22-2--|
|------------------------------------|

I need your boo...
 \ \ \ \/ \  \ \ \ \/ \  \ \ \ \/ \  \ \ \ \/ \
|0-0-0-00-0--0-0-0-00-0--0-0-0-00-0--0-0-0-00-0-|
|0-0-0-00-0--0-0-0-00-0--5-5-5-55-5--0-0-0-00-0-|
|9-9-9-99-9--8-8-8-88-8--6-6-6-66-6--8-8-8-88-8-|
|9-9-9-99-9--9-9-9-99-9--7-7-7-77-7--9-9-9-99-9-| once only this time
|7-7-7-77-7--7-7-7-77-7--0-0-0-00-0--9-9-9-99-9-|
|------------------------------------7-7-7-77-7-|

And oh, I'm into you...
 \ \ \ \/ \  \ \ \ \/ \  \ \ \ \/ /  \ \ \ \/ \
|0-0-0-00-0--0-0-0-00-0--0-0-0-00-0--0-0-0-00-0--|
|0-0-0-00-0--0-0-0-00-0--0-0-0-00-0--0-0-0-00-0--|
|1-1-1-11-1--8-8-8-88-8--6-6-6-66-6--8-8-8-88-8--|
|2-2-2-22-2--9-9-9-99-9--7-7-7-77-7--9-9-9-99-9--|
|2-2-2-22-2--9-9-9-99-9--7-7-7-77-7--9-9-9-99-9--|
|0-0-0-00-0--7-7-7-77-7--5-5-5-55-5--7-7-7-77-7--|

With you, with you...
 \ \  \  /\ \  \ \ \ \/ \
|0-0--0--00-0--0-0-0-00-0--|
|0-0--0--00-0--0-0-0-00-0--|
|2-2-2>4-44-4--4-4-4-44-4--|
|2-2-2>4-44-4--2-2-2-22-2--|
|0-0-0h2-22-2--x-x-0-00-0--|
|--------------4-4---------|

End on single strummed E
Tap to rate this tab
# A B C D E F G H I J K L M N O P Q R S T U V W X Y Z