Song name
# A B C D E F G H I J K L M N O P Q R S T U V W X Y Z

Chris Brown - Deuces tab

Deuces Ft. Tyga & Kevin McCall
Chris Brown - Fan Of A Fan
ChuckNorris_58
Standard Tuning

Intro: 0:00
e|------------------------------------------------------|
B|------------------------------------------11----------|
G|--10-10-8-10----------------10-10-8-10----------------|
D|----------------10-10-11---------------------10-10-8--|
A|------------------------------------------------------|
E|------------------------------------------------------|

e|-----------------------------------------------------|
B|----------------------------13-13-11-13----11-11-11--|
G|--10-10-8-10-----------------------------------------|
D|----------------10-10-11-----------------------------|
A|-----------------------------------------------------|
E|-----------------------------------------------------|

Verse #1: 0:26 - Chris Brown
e|---------------------------------------------------|
B|---------------------------------------------------|
G|--10-10-8-10----------------10-10-8-10-------------|
D|----------------10-10-11------------------10-10-8--|
A|---------------------------------------------------|
E|---------------------------------------------------|

e|-----------------------------------------------------|
B|----------------------------13-13-11-13----11-11-11--|
G|--10-10-8-10-----------------------------------------|
D|----------------10-10-11-----------------------------|
A|-----------------------------------------------------|
E|-----------------------------------------------------|

e|---------------------------------------------------|
B|---------------------------------------------------|
G|--10-10-8-10----------------10-10-8-10-------------|
D|----------------10-10-11------------------10-10-8--|
A|---------------------------------------------------|
E|---------------------------------------------------|

e|-----------------------------------------------------|
B|----------------------------13-13-11-13----11-11-11--|
G|--10-10-8-10-----------------------------------------|
D|----------------10-10-11-----------------------------|
A|-----------------------------------------------------|
E|-----------------------------------------------------|

Chorus #1: 1:18
e|---------------------------------------------------|
B|---------------------------------------------------|
G|--10-10-8-10----------------10-10-8-10-------------|
D|----------------10-10-11------------------10-10-8--|
A|---------------------------------------------------|
E|---------------------------------------------------|

e|-----------------------------------------------------|
B|----------------------------13-13-11-13----11-11-11--|
G|--10-10-8-10-----------------------------------------|
D|----------------10-10-11-----------------------------|
A|-----------------------------------------------------|
E|-----------------------------------------------------|

Verse #2: 1:45 - Tyga
e|------------------------------------------------------|
B|------------------------------------------11----------|
G|--10-10-8-10----------------10-10-8-10----------------|
D|----------------10-10-11---------------------10-10-8--|
A|------------------------------------------------------|
E|------------------------------------------------------|

e|-----------------------------------------------------|
B|----------------------------13-13-11-13----11-11-11--|
G|--10-10-8-10-----------------------------------------|
D|----------------10-10-11-----------------------------|
A|-----------------------------------------------------|
E|-----------------------------------------------------|

e|---------------------------------------------------|
B|---------------------------------------------------|
G|--10-10-8-10----------------10-10-8-10-------------|
D|----------------10-10-11------------------10-10-8--|
A|---------------------------------------------------|
E|---------------------------------------------------|

e|-----------------------------------------------------|
B|----------------------------13-13-11-13----11-11-11--|
G|--10-10-8-10-----------------------------------------|
D|----------------10-10-11-----------------------------|
A|-----------------------------------------------------|
E|-----------------------------------------------------|

Chorus #2: 2:38
e|---------------------------------------------------|
B|---------------------------------------------------|
G|--10-10-8-10----------------10-10-8-10-------------|
D|----------------10-10-11------------------10-10-8--|
A|---------------------------------------------------|
E|---------------------------------------------------|

e|-----------------------------------------------------|
B|----------------------------13-13-11-13----11-11-11--|
G|--10-10-8-10-----------------------------------------|
D|----------------10-10-11-----------------------------|
A|-----------------------------------------------------|
E|-----------------------------------------------------|

Verse #3: 3:04 - Kevin McCall
e|------------------------------------------------------|
B|------------------------------------------11----------|
G|--10-10-8-10----------------10-10-8-10----------------|
D|----------------10-10-11---------------------10-10-8--|
A|------------------------------------------------------|
E|------------------------------------------------------|

e|-----------------------------------------------------|
B|----------------------------13-13-11-13----11-11-11--|
G|--10-10-8-10-----------------------------------------|
D|----------------10-10-11-----------------------------|
A|-----------------------------------------------------|
E|-----------------------------------------------------|

e|---------------------------------------------------|
B|---------------------------------------------------|
G|--10-10-8-10----------------10-10-8-10-------------|
D|----------------10-10-11------------------10-10-8--|
A|---------------------------------------------------|
E|---------------------------------------------------|

e|-----------------------------------------------------|
B|----------------------------13-13-11-13----11-11-11--|
G|--10-10-8-10-----------------------------------------|
D|----------------10-10-11-----------------------------|
A|-----------------------------------------------------|
E|-----------------------------------------------------|

Chorus #3: 3:57
e|---------------------------------------------------|
B|---------------------------------------------------|
G|--10-10-8-10----------------10-10-8-10-------------|
D|----------------10-10-11------------------10-10-8--|
A|---------------------------------------------------|
E|---------------------------------------------------|

e|-----------------------------------------------------|
B|----------------------------13-13-11-13----11-11-11--|
G|--10-10-8-10-----------------------------------------|
D|----------------10-10-11-----------------------------|
A|-----------------------------------------------------|
E|-----------------------------------------------------|

Outro: 4:23
e|------------------------------------------------------|
B|------------------------------------------11----------|
G|--10-10-8-10----------------10-10-8-10----------------|
D|----------------10-10-11---------------------10-10-8--|
A|------------------------------------------------------|
E|------------------------------------------------------|
Tap to rate this tab
 
# A B C D E F G H I J K L M N O P Q R S T U V W X Y Z