Song name
# A B C D E F G H I J K L M N O P Q R S T U V W X Y Z

Chris Brown - Yeah 3x tab

Yeah 3x
Chris Brown - F.A.M.E
ChuckNorris_58
Standard Tuning

Intro #1: 0:15
e|----------------------------------------------------------------------------------------|
B|----------------------------------------------------------------------------------------|
G|--11-11-14-14----------------------------11-11-14-14------------------------------------|
D|--------------9----9-11-12-12-12-12-9----------------9----9-11-12-12-7-7-9-9-9-9-9-9-9--|
A|----------------------------------------------------------------------------------------|
E|----------------------------------------------------------------------------------------|

Verse #1: 0:30
e|--------------------------------------------------------|
B|--------------------------------------------------------|
G|--11-11-11-11-------------------------------------------|
D|--------------9-9-9-9-9-9-11-12-12-12-12-9-9-9-9-9-9-9--|
A|--------------------------------------------------------|\
E|--------------------------------------------------------| \
                                                             >-- x2
e|--------------------------------------------------------| /
B|--------------------------------------------------------|/
G|-----11-11-14-14----------------------------------------|
D|-----------------9-9-9-9-9-9-11-12-12-7-7-9-9-9-9-9-----|
A|--------------------------------------------------------|
E|--------------------------------------------------------|

Pre-Chorus #1: 1:00
         x4              x4              x3             x1            x4
e|---------------|---------------|---------------|------------|---------------|
B|---------------|---------------|---------------|------------|---------------|
G|--11-11-11-11--|---------------|---------------|------------|---------------|
D|---------------|----9-9-9-9----|--12-12-12-12--|--12-7-7-7--|----9-9-9-9----|
A|---------------|---------------|---------------|------------|---------------|
E|---------------|---------------|---------------|------------|---------------|

Chorus #1: 1:14
e|----------------------------------------------------------------------------------------|
B|----------------------------------------------------------------------------------------|
G|--11-11-14-14----------------------------11-11-14-14------------------------------------|
D|--------------9----9-11-12-12-12-12-9----------------9----9-11-12-12-7-7-9-9-9-9-9-9-9--|
A|----------------------------------------------------------------------------------------|
E|----------------------------------------------------------------------------------------|

Verse #2: 1:29
e|--------------------------------------------------------|
B|--------------------------------------------------------|
G|--11-11-11-11-------------------------------------------|
D|--------------9-9-9-9-9-9-11-12-12-12-12-9-9-9-9-9-9-9--|
A|--------------------------------------------------------|\
E|--------------------------------------------------------| \
                                                             >-- x3
e|--------------------------------------------------------| /
B|--------------------------------------------------------|/
G|-----11-11-14-14----------------------------------------|
D|-----------------9-9-9-9-9-9-11-12-12-7-7-9-9-9-9-9-----|
A|--------------------------------------------------------|
E|--------------------------------------------------------|

Pre-Chorus #2: 2:13
         x4              x4              x3             x1            x4
e|---------------|---------------|---------------|------------|---------------|
B|---------------|---------------|---------------|------------|---------------|
G|--11-11-11-11--|---------------|---------------|------------|---------------|
D|---------------|----9-9-9-9----|--12-12-12-12--|--12-7-7-7--|----9-9-9-9----|
A|---------------|---------------|---------------|------------|---------------|
E|---------------|---------------|---------------|------------|---------------|

Chorus #2: 2:28
e|----------------------------------------------------------------------------|
B|----------------------------------------------------------------------------|
G|--11-11-14-14----------------------------11-11-14-14------------------------|
D|--------------9----9-11-12-12-12-12-9----------------9----9-11-12-12-7-7-9--|
A|----------------------------------------------------------------------------|
E|----------------------------------------------------------------------------|

Bridge #1: 2:43
e|--------------------------------------------------------|
B|--------------------------------------------------------|
G|--11-11-11-11-------------------------------------------|
D|--------------9-9-9-9-9-9-11-12-12-12-12-9-9-9-9-9-9-9--|
A|--------------------------------------------------------|\
E|--------------------------------------------------------| \
                                                             >-- x2
e|--------------------------------------------------------| /
B|--------------------------------------------------------|/
G|-----11-11-14-14----------------------------------------|
D|-----------------9-9-9-9-9-9-11-12-12-7-7-9-9-9-9-9-----|
A|--------------------------------------------------------|
E|--------------------------------------------------------|

Chorus #3: 3:12
e|----------------------------------------------------------------------------------------|
B|----------------------------------------------------------------------------------------|
G|--11-11-14-14----------------------------11-11-14-14------------------------------------|
D|--------------9----9-11-12-12-12-12-9----------------9----9-11-12-12-7-7-9-9-9-9-9-9-9--| x2
A|----------------------------------------------------------------------------------------|
E|----------------------------------------------------------------------------------------|

Outro #1: 3:41
e|--------------------------------------------------------|
B|--------------------------------------------------------|
G|--11-11-11-11-------------------------------------------|
D|--------------9-9-9-9-9-9-11-12-12-12-12-9-9-9-9-9-9-9--|
A|--------------------------------------------------------|
E|--------------------------------------------------------|

e|--------------------------------------------------------|
B|--------------------------------------------------------|
G|-----11-11-14-14----------------------------------------|
D|-----------------9-9-9-9-9-9-11-12-12-7-7-9-9-9-9-9-----|
A|--------------------------------------------------------|
E|--------------------------------------------------------|

The End
Thankyou, Please Rate
Tap to rate this tab
 
# A B C D E F G H I J K L M N O P Q R S T U V W X Y Z