Song name
# A B C D E F G H I J K L M N O P Q R S T U V W X Y Z

Chris Cagle - What Kinda Gone tab

Ok guys the two versions for this song dont do much to help you get the intro or much at
for that matter. im not going to tab every single little part of the song im going to
you the general chords and my best interpretation of the intro. please rate and coment 
and if you have anything i should add please tell and ill add it plus your name
the help.

enjoy

----------------------------------------------------------------------------
			   Chris cagle - What Kinda gone
----------------------------------------------------------------------------
Tabbed by: Mrfussytabs
Email: Lakesidefantasys@yahoo.com

Tuning:Standard

the first chord of the intro is played about 5 times with some left hand muting in
the 2nd and 3rd times
e|------------------------------------------------------------------------|
B|------------------------------------------------------------------------|
G|------------------------------------------------------------------------|
D|----3---3-3-3-----------------------------------------------------------|
A|----3---3-3-3---2p0-2p0-------------------------------------------------|
E|-1~-1---1-1-1-----------------------------------------------------------|
play the intro twice.

verse (also the second verse just different words)
e|------------------------------------------------------------------------|
B|------------------------------------------------------------------------|
G|--------------------------3-3-3-3-3----------------------3-3-3-3-3------|
D|--3-3-3-3-3---------------3-3-3-3-3----3-3-3-3-3---------3-3-3-3-3------|
A|--3-3-3-3-3-(X2)----------1-1-1-1-1----3-3-3-3-3--(X3)---1-1-1-1-1------|
E|--1-1-1-1-1----------------------------1-1-1-1-1------------------------|
  "i heard the door slam"  "aw hell"   "shes gettin in"   "im gone"

e|------------------------------------------------------------------------|
B|------------------------------------------------------------------------|
G|-5-5-5-5-5-----------3~~------------------------------------------------|
D|-5-5-5-5-5-----------3~~------------------------------------------------|
A|-3-3-3-3-3-----------1~~------------------------------------------------|
E|------------------------------------------------------------------------|
   "But these days"   "thiiiiings"

(chorus)
e|------------------------------------------------------------------------|
B|------------------------------------------------------------------------|
G|------------------------5-5-5-5-5-----------3-3-3-3-3-------------------|
D|-3----------------------5-5-5-5-5-----------3-3-3-3-3-------------------|
A|-3----------------------3-3-3-3-3-----------1-1-1-1-1-------------------|
E|-1----------------------------------------------------------------------|
  "well theres gone"    "gone with a long"   "Wish shed been"

e|-------------------------------|
B|-------------------------------|
G|--3-3--3-3--3-3----------------|
D|--3-3--3-3--3-3----------------|
A|--1-0--1-0--1-0----------------|
E|-------------------------------|* only the first half of the verse
   "clear"
repeat the first part of the first(not including that^ lil part) verse then this.

e|-----------------------------------------------------------------------|
B|-----------------------------------------------------------------------|
G|----7-7-7-7-7------------------3-3-3-3-3-------------------------------|
D|----7-7-7-7-7------------------3-3-3-3-3-------------------------------|
A|----5-5-5-5-5------------------1-1-1-1-1-------------------------------|
E|-----------------------------------------------------------------------|
     "Is it a risky night"       "or just"
e|-----------------------------------------------------------------------|
B|-----------------------------------------------------------------------|
G|---5-5-5-5-----------------3-3-3-3-------------------------------------|
D|---5-5-5-5-----------------3-3-3-3--------3-3-3-3----------------------|
A|---3-3-3-3-----------------1-1-1-1--------3-3-3-3----------------------|
E|------------------------------------------1-1-1-1----------------------|
 "I mean what kinda gone"  "talkin bout"   "here"


interlude (beginning half)
e|---------------------------------------------------------------------------|
B|---------------------------------------------------------------------------|
G|-7~~~~--------------------5~~~~-----------3~~~~----------------------------|
D|-7~~~~--------------------5~~~~-----------3~~~~----------------------------|
A|-5~~~~--------------------3~~~~-----------1~~~~----------------------------|
E|---------------------------------------------------------------------------|
  "is it the kinda gone"   "at her moms"   "coolin down"

(end of first half)
e|-----------------|
B|-----------------|
G|-----------------|
D|------3--0-------|
A|------3--0-------|
E|------1--0-------|  then play the "begining half" to end interlude.
    "come around"
for the outro you play a little mixture of the intro and the chorus

please rate and comment!!

| /  slide up
| \  slide down
| h  hammer-on
| p  pull-off
| ~  Let it ring
| +  harmonic
| x  Mute note
Tap to rate this tab
 
# A B C D E F G H I J K L M N O P Q R S T U V W X Y Z