Song name
# A B C D E F G H I J K L M N O P Q R S T U V W X Y Z

Chris Cornell - Sweet Euphoria tab

Help us improve GuitareTab! Take a short survey!
Intro:
D-|-----0------0-----------0---------|
A-|-------------------0--------------|
F-|----1-1----1-1----1-1-------------|
C-|---2---2--2---2--2---2------------|
G-|--------2-------------------------|
D-|-0-------------0------------------|
^ ^ ^ Play These 3 Notes Louder Than The Rest

Main Riff:
D-|-0-------x--x-x-----1----1p0-00-0--|-0--0---3----2----0-----0-------|
A-|-0-------5--3-x(3)--1----1---11-1--|-1--1---3----3----0------0------|
F-|-1-------6--4-x(4)--2----2p0-00-0--|-0--0---0----2----1-------1-----|
C-|-2-------7--5-x(5)--3--------22-2--|-2--2---0----0----2-------------|
G-|-2-------7--5-x(5)--3--3-----33-3--|-3--3---x---------2---2---------|
D-|-0-------5--3-x(3)--1--------------|--------3---------0--------2----|
Sweet Eupho________ria, mine is the heart you own

D-|-----0--------0-----0--0--00-----0|-0---00------0--0--0------0--0---|
A-|-----0--------2-----2--2--20-----0|-0---02------2--2--2------0--0---|
F-|-----1--------2-----2--2--21-----1|-1---12------2--2--2-2----2--2---|
C-|-----2--------2-----2--2--22-----2|-2---22------2--2--2-3----3--3---|
G-|--------------0------------2------|------0--------------2-----------|
D-|---------------------------0------|---------------------1-----------|
you lost the grace of the hands that harmed you in the

D-|-0----0-0-20---0-0-02-------2-x(2)|-x(2)-1--1-x(1)-x(1)-0-----0--0--|
A-|-2----2-2-20---0-0-02-------2-x(2)|-x(2)-1--1-x(1)-x(1)-1-----1--1--|
F-|-2----2-2-21---1-1-12-------2-x(2)|-x(2)-2--2-x(2)-x(2)-0-----0--0--|
C-|-2----2-2-20---0-0-04-------------|------3--------------2-----2--2--|
G-|-0---------2--------4----4--------|------3--------------3-----------|
D-|-----------0--------2-------------|------1--------------------------|
daze of a thousand yawns lost my love, as it 

D-|-3--3--x(3)-x(3)-0--0-0-0-2-------|-2h3p2--------0------------------|
A-|-3--3--x(3)-x(3)-1--1-1-1-3-------|------(3)-----0------------------|
F-|-0--0--0----0----2--2-2-2-2-------|---------(2)--1------------------|
C-|-0---------------2--2-2-2-0-------|--------------2------------------|
G-|-x---------------0----------------|--------------2------------------|
D-|-3--------------------------------|------------3--------------------| 
is I'm tru___ly gone

Bridge:
D-|-0--0-0-00-0-0-03--3-3-3------2---|------3--3-3-3----2-------2--222-|
A-|-2--2-2-21-1-1-13--3-3-3-2--------|-2----3--3-3-32--------2--2--222-|
F-|-2--2-2-20-0-0-00--0-0-0-0--------|------0--0-0-00-----------2--222-|
C-|-2--2-2-22-2-2-20--------2--------|------0-------2-----------4--444-|
G-|-0-------3------x--------0--------|------x-------0-----------4--444-|
D-|----------------3-----------------|------3-------------------2--222-|
In your waking hour, time wilts like flowers sleeping on la__nd

D-|-2--222--2--222--2--222--2--222----------2--222----------1----1-x(1)|
A-|-2--222--2--222--2--222--2--222----------2--222----------1----1-x(1)|
F-|-2--222--2--222--2--222--4--444--3--333--4--444--3--333--2----2-x(2)|
C-|-4--444--4--444--4--444--2--222--2--222--2--222--2--222--3----------|
G-|-4--444--4--444--4--444--4--444--2--222--4--444--2--222--3----------|
D-|-2--222--2--222--2--222--0--000--0--000--0--000--0--000--1----------|
mi__ne pi______llo_ws ti______re___d a______nge__ls save my___ 

D-|-x(1)-0--x(0)-x(0)-2-x(2)-x(2)-0--|
A-|-x(1)-2--x(2)-x(2)-3-x(3)-x(3)-0--|
F-|-x(2)-2--x(2)-x(2)-2-x(2)-x(2)-1--|
C-|------2------------0-----------2--|
G-|------0------------------------2--|
D-|-------------------------------0--|
____ love for the lasti____ng one


*Play These Parts With Main Riff:

In you morning I will sleep
Fire on an open palm
Death for Jesus and plastic armies
Wouldn't bring me back again
Sweet as ether eyes I'm blind to them

Sweet Euphoria, mine is the heart you stole
Touched and broken are the things you love
Using stars to light your candles
Warms my face, but I can't remember yours


*Play This Part With Bridge(With A Little Change):

Gone are you dandelions, falling like mine
Falling like daydream mangos
Diving swallows

D-|-1----1-x(1)-x(1)-0--x(0)-x(0)- |---------2--x(2)-7---------------|
A-|-1----1-x(1)-x(1)-2--x(2)-x(2)- |---------3--x(3)-9---------------|
F-|-2----2-x(2)-x(2)-2--x(2)-x(2)- |---------2--x(2)-9---------------|
C-|-3----------------2------------ |-----------------9---------------|
G-|-3----------------0------------ |-----------------7---------------|
D-|-1----------------------------- |-----------------7---------------|
save my________ lo_________ve for the lasting one
^ Play This Whole Part 3 Times


Outro:
D-|------0----0---------------1------1-------1----5p0------------------|
A-|--------0---2--5----------1-1----1-1-----1-1---5p0------------------|
F-|-------------2-4----2----2------2-------2------6p0------------------|
C-|---------------6---3----3--------------3-------7p0------------------|
G-|---------0-----7--3----------------------------7p0------------------|
D-|-0-------------0-1-----1-------1------1--------5p0------------------|
Sweet eupho_____ri_a ^ Let It Ring And
When The Sound It
Almost Gone, Release
All The Strings
Related for Sweet Euphoria tab