Song name
# A B C D E F G H I J K L M N O P Q R S T U V W X Y Z

Chris Cornell - Killing Birds tab

Song: Killing Birds
Artist: Chris Cornell
Album: Carry On
Tuning: Standard (EADGBE)
Tabbed by: hunter6571

Intro(0:00-0:11)
          On repeat, stop here*| 
e|-----------------------------|--------------------------|
b|-----------------------------|--------------------------|
g|-----------------------------|--------------------------|X2
d|---8----8--------------5-----|----8----8--------------5-|
a|------------------8----------|-------------------8-8----|
e|6-6--6-6--6-6--0-0--0-0--0-0-|-6-6--6-6--6-6--0-0----0--|

Then continue here...(0:11-0:26)
e|----------------------------------------------------------------|
b|----------------------------------------------------------------|
g|------------------2----2----------------------------------------|X2
d|---5----5------------------------5----5-----------10------10----|
a|----------------------------------------------------------------|
e|3-3--3-3--3-3--1-1--1-1--1-1--6-6--6-6--6-6--10-10---10-10---10-|

Intro Solo(0:11-0:26)
E|------------------------------------------------|
B|------------------------------------------------|
G|------------------------------------------------|
D|--------------------------------8-12-10-8-10-12-|
A|8/10-10-10-10/8-5------4h5-8-10-----------------|
E|------------------------------------------------|

e|----------------------------------------------------|
b|----------------------------------------------------|
g|----------------------------------------------------|
d|------------------------------------8-12-10-8-10-12-|
a|8/10-10-10-10/8-5p4h5------4h5-8-10-----------------|
e|----------------------------------------------------|

That's all I've got so far, but I'm pretty sure it's 100% correct.
I'll try to keep this tab updated for more of the song.
Please rate and/or leave a comment to tell me how I did.
Thanks.
Tap to rate this tab
# A B C D E F G H I J K L M N O P Q R S T U V W X Y Z