Song name
# A B C D E F G H I J K L M N O P Q R S T U V W X Y Z

Chris Cornell - Your Soul Today tab

----------------------------------------------------------------------------
		      YOUR SOUL TODAY - Chris Cornell
----------------------------------------------------------------------------
Tabbed by: Tyler Merle
Email: ty1470@yahoo.com

Tuning:EADGBe

Intro (Verse):

e|-----------x-x-x-----------------|-------x-x-x-x-x----------------|
B|----9------x-x-x-----------------|----9--x-x-x-x-x----------------|
G|----9------x-x-x-----------------|----9--x-x-x-x-x----------------|
D|-9--9--9\--x-x-x-----------------|-9--9--x-x-x-x-x----------------|
A|-9--7--9\------------------------|-9--7---------------------------|
E|-7-----7\--------(4)h5---7-4-2-4-|-7---------------(4)h5---7-4-2-4|

Repeat the above throughout the Verse until the last line, which goes...

e|-----------x-x-x-----------------|-------x-x-x-x-x--------------------|
B|----9------x-x-x-----------------|----9--x-x-x-x-x--------------------|
G|----9------x-x-x-----------------|----9--x-x-x-x-x--------------------|
D|-9--9--9\--x-x-x-----------------|-9--9--x-x-x-x-x--------------------|
A|-9--7--9\------------------------|-9--7-------------------------------|
E|-7-----7\--------(4)h5---7-4-2-4-|-7---------------(4)h5---7-4-2-4~~~~|

Then...

e|-----------------------------|
B|-----------------------------|
G|-----------------------------|
D|-(4)h6-4---4-4~------6-4-----|
A|---------6-----5-6-4-----6-5-|
E|-----------------------------|
                 "Can I visit your..."

Chorus:

e|---------------------------------------------------------------------|
B|---------2~-2-2-2----------4~-4-4-4----------2~-2-2-2--6-6-6-6-6-6-6-|
G|-1~~~-1--2~-2-2-2--1~~~-1--4~-4-4-4--1~~~-1--2~-2-2-2--6-6-6-6-6-6-6-|
D|-2~~~-2--2~-2-2-2--4~~~-4--4~-4-4-4--2~~~-2--2~-2-2-2--6-6-6-6-6-6-6-|
A|-2~~~-2--0~-0-0-0--4~~~-4--2~-2-2-2--2~~~-2--0~-0-0-0--4-4-4-4-4-4-4-|
E|-0~~~-0------------2~~~-2------------0~~~-0--------------------------|

Verse 2:

Same as verse 1 except for an overlapping organ harmony (which a lead guitar can 
even adding various effects in order to more accurately emulate an organ)...

e|---------------|
B|-------10~~~~~-|
G|----7----------|
D|-9-------------|
A|---------------|
E|---------------|

and a minor fill, which can also be done by the same guitarist seeing as to how it fits 
between the organ harmony (if you're fast enough)...

e|---------|
B|-7(hold)-|
G|-9^(11)--|
D|---------|
A|---------|
E|---------|

Solo!!!!!!:

e|--------------------------------|-------7-------------------|
B|-9-7-10/12--10--9--(10)/12-10-9-|-7-9-7----------------7~~\-|
G|--------------------------------|---------7------------7~~\-|
D|--------------------------------|-----------9~~~\--7h9------|
A|--------------------------------|---------------------------|
E|--------------------------------|---------------------------|

Then Repeat.

Bridge:

e|-----------------------------|----------------|
B|-----------------------------|----------------|
G|-----------------------------|----------------|
D|-(4)h6-4---4-4~------6-4-----|--------4-------|
A|---------6-----5-6-4-----6-5-|-4~-4h6---------|
E|-----------------------------|----------4~~~~-|

Repeat twice.

Outro:

Play the verse in the background while the lead plays in the following scale...

e|-------------------------14-17-19-|
B|-------------------15-17----------|
G|-------------14-16----------------|
D|-------14-16----------------------|
A|-14-17----------------------------|
E|----------------------------------|

And finally, end powerfully on

e|---------|
B|----9----|
G|----9----|
D|-9--9--9-|
A|-9--7--9-|
E|-7-----7-|

Key:

| /   slide up
|(#)/ quick slide up
| \   slide down
| h   hammer-on
|(#)h quick hammer-on
| ~   hold note/vibrato
| x   Mute note

Questions, comments, or death threats can be sent to ty1470@yahoo.com. Thanks.
============================================================================
Tap to rate this tab
 
# A B C D E F G H I J K L M N O P Q R S T U V W X Y Z