Song name
# A B C D E F G H I J K L M N O P Q R S T U V W X Y Z

Chris Daughtry - No Suprise tab

No Suprise By Chris Daughtry
tabbed by DiscoFerret 22

Just the basic outline of the song.

Tuning: Standard

Verse:
e|--------------------|
B|--------------------|
G|---8----------------|
D|---8---8---10---6---|
A|---6---8---10---6---|
E|-------6---8----4---|

Pre-chorus:
e|-----------|
B|-----------|
G|-----------|
D|---3---6---|
A|---3---6---|
E|---1---4---|

Chorus:
Rhythm
e|--------------------------------------|        |-|
B|--------------------------------------|        |-|
G|---8----------------------------------|        |8| 
D|---8-16x---8------10------6----8------| end at |8|
A|---6-------8-16x--10-16x--6-8x-8-8x---|        |6|
E|-----------6------8-------4----6------|        |-|

Lead (listen)
e|-----------------------------|
B|-----------------------------|
G|---13-13-12-12---------------|
D|---------------13-13-15-15---| 3x
A|-----------------------------|
E|-----------------------------|

then
e|--------------------------------------------------|
B|-----------------------------15-16-15--15-16-15---|
G|---13-13-12-12-------15-15------------------------|
D|---------------13-13------------------------------| 
A|--------------------------------------------------|
E|--------------------------------------------------|

Verse 2: (basically the same as verse 1 except for some lead parts)
Chorus
Bridge (same chords like the rest of the song)
Chorus

Final Chorus:
Lead (instead of the one above)

e|---------------------------------------------------------|
B|------------------------------------15-16-15--15-16-15---|
G|---12-13-15---12-13-15---12-13-15------------------------|
D|---------------------------------------------------------| 
A|---------------------------------------------------------|
E|---------------------------------------------------------|

===============================================================================
Tap to rate this tab
# A B C D E F G H I J K L M N O P Q R S T U V W X Y Z