Guitaretab - guitar tabs
Song name
# A B C D E F G H I J K L M N O P Q R S T U V W X Y Z

Chris Daughtry - What About Now tab

What About Now Guitar Tabs by Chris Daughtry

Intro: (Piano Intro)
g---------------------------------|
d---------------------------------|
a---------------------------------|
e--55555555--00000000-------------|    x3
(Shadows fill......)

g-------|
d-------|
a--5~--
e-------

Verse:
g---------------------------------|
d---------------------------------|
a---------------------------------|
e--55555555--00000000-------------|     x3

g-----------------------------------|
d-----------------------------------|
a--55555555--11111111---------------|
e-----------------------------------|

Chorus:

g----------------------------------------------------------------|
d----------------------------------------------------------------|
a--333333--2-----------------------------3--55555555-------------|
e-----------------555555--3--111111------------------------------|

g-----------------------------------------------------------------|
d-----------------------------------------------------------------|
a--333333--2-----------------------------3--55555555--------------|
e-----------------555555--3--111111-------------------------------|

g---------------------|
d---------------------|
a--33333333-----------|
e----------------1~---|
(baby before it too late.....)

After Chorus:
-------------------------------------|
d------------------------------------|
a------------------------------------|
e--55555555--00000000--5~------------|

(Verse)

Chorus:

g---------------------------------------------------------------|
d---------------------------------------------------------------|
a--333333--2----------------------------3--55555555-------------|
e-----------------555555--3--111111-----------------------------|

[ Tab from: http://www.guitaretab.com/c/chris-daughtry/215150.html ]
g-----------------------------------------------------------------|
d-----------------------------------------------------------------|
a--333333--2-----------------------------3--55555555--------------|
e-----------------555555--3--111111-------------------------------|


g--------------------------------|
d--------------------------------|
a--33333333----------------------|
e----------------11111111--------|
(baby before it too late.....)

Breakdown:

g--------------------------------------------------------------------------------------|
d--------------------------------------------------------------------------------------|
a---8--8--8-8--8-8--8--8---------------33333333--1-1-1-1-1-----------------------------|
e-----------------------------55555555-------------------------------------------------|

g-----------------------------------------------------------------------------------------|
d-----------------------------------------------------------------------------------------|
a---8--8-8--8--8-8--8-8--------------------------------------------5555555555555555-------|
e-----------------------------55555555--1111111111111111------------------------------5~--|

Post Chorus:
------Bass silent--------

Chorus:

g----------------------------------------------------------------|
d----------------------------------------------------------------|
a--333333--2----------------------------3--55555555--------------|
e-----------------555555--3--111111------------------------------|

g-----------------------------------------------------------------|
d-----------------------------------------------------------------|
a--333333--2-----------------------------3--55555555--------------|
e-----------------555555--3--111111-------------------------------|

g---------------------------|
d---------------------------|
a--33333333-----------------|           x3
e----------------1~---------|
(baby before it too late.....)
Related for What About Now tab
What About Now chords by Chris Daughtry