Song name
# A B C D E F G H I J K L M N O P Q R S T U V W X Y Z

Chris Daughtry - One Last Chance tab

-------------------------------------------------------------------------------
			     One Last Chance - Chris Daughtry
-------------------------------------------------------------------------------
Tabbed by:Dave
Email:

This is my first tab so don't be too critical.
You can listen to the song to pick up the right strumming pattern,
but other than that I think these chords are right.
Let me know how I did.

Tuning:Standard

Intro/Verse:

   Dm                   Bb                   F                    C

e|-1------1-----1--1----1------1-----1--1----1------1-----1--1----0------0---|
B|-3------3-----3--3----3------3-----3--3----1------1-----1--1----1------1---|
G|-2------2-----2--2----3------3-----3--3----2------2-----2--2----0------0---|
D|-0------0-----0--0----3------3-----3--3----3------3-----3--3----2------2---|
A|----------------------1------1-----1--1----3------3-----3--3----3------3---|
E|----------------------1------1-----1--1----1------1-----1--1---------------|

             Dm                   Bb                   F

e|---0--0----1------1-----1--1----1------1-----1--1----1------1-----1--1-----|
B|---1--1----3------3-----3--3----3------3-----3--3----1------1-----1--1-----|
G|---0--0----2------2-----2--2----3------3-----3--3----2------2-----2--2-----|
D|---2--2----0------0-----0--0----3------3-----3--3----3------3-----3--3-----|
A|---3--3-------------------------1------1-----1--1----3------3-----3--3-----|
E|--------------------------------1------1-----1--1----1------1-----1--1-----|

   F                   Dm                 Bb                   F

e|-1-----1-----1--1----1-----1-----1--1----1-----1-----1--1----1-----1----1-1|
B|-1-----1-----1--1----3-----3-----3--3----3-----3-----3--3----1-----1----1-1|
G|-2-----2-----2--2----2-----2-----2--2----3-----3-----3--3----2-----2----2-2|
D|-3-----3-----3--3----0-----0-----0--0----3-----3-----3--3----3-----3----3-3|
A|-3-----3-----3--3------------------------1-----1-----1--1----3-----3----3-3|
E|-1-----1-----1--1------------------------1-----1-----1--1----1-----1----1-1|

   C

e|--0-----0-----0--0------|
B|--1-----1-----1--1------|
G|--0-----0-----0--0------|
D|--2-----2-----2--2------|
A|--3-----3-----3--3------|
E|------------------------|

First Pre-Chorus:

e|------------------------------------------|
B|------------------------------------------|
G|--3-------------2---------------3---------|
D|--3----8x-------2-----8x--------3-----8x--|
A|--1-------------0---------------1---------|
E|------------------------------------------|

Chorus:

e|---------------------------------------------------------------------------|
B|---------------------------------------------------------------------------|
G|--------------------5----5----5----5-5-3----3----3----3----3----3----3--5--|
D|-3----3----3----3-3-5----5----5----5-5-3----3----3----3----3----3----3--5--|
A|-3----3----3----3-3-3----3----3----3-3-1----1----1----1----1----1----1--3--|
E|-1----1----1----1-1--------------------------------------------------------|

e|---------------------------------------------------------------------------|
B|---------------------------------------------------------------------------|
G|-7----7----7----7----7----7----7----7----5----5----5----5----5----5----5-3-|
D|-7----7----7----7----7----7----7----7----5----5----5----5----5----5----5-3-|
A|-5----5----5----5----5----5----5----5----3----3----3----3----3----3----3-1-|
E|---------------------------------------------------------------------------|

2x

Replay Verse

Second Pre-Chorus

e|------------------------------------------|
B|------------------------------------------|
G|--3-------------2---------------3---------|
D|--3----8x-------2-----8x--------3-----9x--| Hold last note
A|--1-------------0---------------1---------|
E|------------------------------------------|

Replay Chorus

Bridge/Solo
e|--------------------------------------------------------------------------|
B|--------------------------------------------------------------------------|
G|-3---------7---------3------------------5---------3--------7-------5------|
D|-3---8x----7---8x----3--16x---3---------5---8x----3--8x----7--4x---5--4x--|
A|-1---------5---------1--------3---8x----3---------1--------5-------3------|
E|------------------------------1-------------------------------------------|

                   Replay chorus starting with: (same chorus as before, it just starts 
the middle)
e|----------------|                |-----------------------|
B|----------------|                |-----------------------|
G|--3-------------|                |---7-------------------|
D|--3--8x--3------|                |---7-------------------|
A|--1------3-HOLD-|                |---5-------------------|
E|---------1------|                |-----------------------|

After playing that chorus he plays this once:

e|-----------------------------------------------|
B|-----------------------------------------------|
G|-----------3----------7---------5----------3---|
D|--3--------3---8x-----7---8x----5---7x-----3---|
A|--3--8x----1----------5---------3----------1---|
E|--1--------------------------------------------|

Replay Chorus at the end


The End
************************************

| /   slide up
| \   slide down
| h   hammer-on
| p   pull-off
| ~   vibrato
| +   harmonic
| x   Mute note
| b   Bend
| pb  Pre-bend
| br  Bend release
| pbr Pre-bend release
| brb Bend release bend

************************************
Tap to rate this tab
# A B C D E F G H I J K L M N O P Q R S T U V W X Y Z