Song name
# A B C D E F G H I J K L M N O P Q R S T U V W X Y Z

Chris Daughtry - Poker Face tab

Poker Face (Acoustic Version)

This is based from Daughtry’s acoustic version

Tabbed by: Danilo Santos

For any comment and suggestion please comment or just email me at rrdie_000@yahoo.com.ph

Use this pattern through intro and verses 

Intro/Verse
    Em			          C
 E|-0----------0------------------0---------0---------------------|
 B|-0------0------0------0--------1------1-----1-----1------------|
 G|-0-----------------0------0----0----------------0-----0--------|
 D|-2--2--------------------------2--2----------------------------|
 A|-2-----------------------------3-------------------------------|
 E|-0-----------------------------0-------------------------------|

    G			          D
 E|-3----------3------------------2---------2--------------------|
 B|-3------3------3------3--------3------3-----3-----3-----------|
 G|-0-----------------0------0----2----------------2-----2-------|
 D|-0--0--------------------------0--0---------------------------|
 A|-2-----------------------------0------------------------------|
 E|-3-----------------------------0------------------------------|

For the chorus part use: Em – C – G – D 
Strum this part according to the rhythm of the song….


PLEASE RATE……..
Tap to rate this tab
 
# A B C D E F G H I J K L M N O P Q R S T U V W X Y Z