Chris Daughtry - September tab

PTL

                               Daughtry -September
                      From the record Leave This town
Tabbed by: Sanjeev George and Thomas George Varghese

Email:SanjeevGeorge123@yahoo.co.in

Now also connect at www.facebook.com/sanjeevgeorge
                               
                    www.profile.ultimate-guitar.com/sanjeev+george


Submitted to and for www.ultimate-guitar.com only, the site for all your tab 
needs. If this has been found on any other site it simply means it has been copied.


Tuning: 1/2 step down


3 guitars needed

Guitar 1: Electric solos, bridge, chords in chorus,outro
Guitar 2: Acoustic arps inverses and chords
Guitar 3: Electric chorus 2, bridge, solo rhythm, last chorus

Guitar 1 fades in
eb|---------------------------------------------------------------------------|
Bb|---------------------------------------------------------------------------|
Gb|---------------------------------------------------------------------------|
Db|---------------------------------------------------------------------------|
Ab|---------------------------------------------------------------------------|
Eb|---------------------------------------------------------------------------|


Guitar 2(during the intro and in the verses)
eb|----------------------------------------------------------------------0---------|
Bb|----------0--------0---------0--------------0--------------0------------0-------|
Gb|--------4--------4---------4---4---4------4---4----------4---4------4-------4---|
Db|------4--------4---------4-------4------4--------------4----------4-------4-----|
Ab|--------------------------------------------------------------------------------|
Eb|----4--------2--------0---------------2----------0---2----------0---------------|

eb|---------------------------------------------0------------|
Bb|----------0--------0---------0--------0-------------------|
Gb|--------4--------4---------4---4---4------4----4---4------|
Db|------4--------4---------4-------4------4--------4--------|
Ab|----------------------------------------------------------|
Eb|----4--------2--------0-----------------------------------|


Guitar 1(during the intro and the verses)
eb|------------------------|
Bb|------------------------|
Gb|----3b4---3-1-----------|
Db|--------------2vvvvv----|
Ab|------------------------|
Eb|------------------------|

Guitar 1 just before the 1st chorus
eb|-------------------------------------|
Bb|-------------------------------------|
Gb|----3b4---3-1------------------------|
Db|--------------2vvvvv----2h4-4~-------|
Ab|----------------------------2~-------|
Eb|-------------------------------------|

Bridge (Guitar 1)
eb|-------------------------------|
Bb|----000-000-000-000-0000-------|
Gb|----444-333-444-333-6666-------|x4
Db|-------------------------------|
Ab|-------------------------------|
Eb|-------------------------------|

Solo (guitar 1)
eb|----------------------------14-14-14--------------------------14-14-14-----|
Bb|----00000000-0-12-12-12--12-----------00000000-0-12-12-12--12--------------|
Gb|---------------------------------------------------------------------------|
Db|---------------------------------------------------------------------------|
Ab|---------------------------------------------------------------------------|
Eb|---------------------------------------------------------------------------|

eb|----------------------------14-14-14--------------------------14-14-14-----|
Bb|----00000000-0-12-12-12--12-----------00000000-0-12-12-12--12--------------|
Gb|---------------------------------------------------------------------------|
Db|---------------------------------------------------------------------------|
Ab|---------------------------------------------------------------------------|
Eb|---------------------------------------------------------------------------|

eb|----------------------------14-14-14--------------------------14-14-14-----|
Bb|----00000000-0-12-12-12--12-----------00000000-0-12-12-12--12--------------|
Gb|---------------------------------------------------------------------------|
Db|---------------------------------------------------------------------------|
Ab|---------------------------------------------------------------------------|
Eb|---------------------------------------------------------------------------|


eb|---------14-----------------------------11-----12-----14vv------------------------|
Bb|----0-12----12----14b16r—12h14p12vvv----14b16—-15b17—-17b19vv----19b21-19vvvvv----|
Gb|----------------------------------------------------------------------------------|
Db|----------------------------------------------------------------------------------|
Ab|----------------------------------------------------------------------------------|
Eb|----------------------------------------------------------------------------------|



Guitar 1 licks during choruses 2 and in the end
eb|---------------------------------------------------|
Bb|----4b5-r4-----4b5-r4-----4b5-r4----------2--------|
Gb|-----------4----------4----------4----3-4---3------|
Db|---------------------------------------------------|
Ab|---------------------------------------------------|
Eb|---------------------------------------------------|

eb|---------------------------------------------------|
Bb|----4b5-r4-----4b5-r4----------2-------------------|
Gb|-----------4----------4----3-4---3-----------------|
Db|-----------------------------------2v--------------|
Ab|---------------------------------------------------|
Eb|---------------------------------------------------|


eb|------------------0-------|
Bb|------------------0-------|
Gb|----3-4-b—3b4r3---1-------|
Db|------------------2-------|
Ab|------------------2-------|
Eb|------------------0-------|




| /  slide up
| \  slide down
| h  hammer-on
| p  pull-off
| ~  let ring
| +  harmonic
| x  Mute note
| v  vibrato


Verse 1
How the time’s passed away 
All the trouble that we gave
And all those days we spent out by the lake
Has it all gone to waste 
All the promises we made
One by one they vanish just the same

Chorus 1(Guitar 2 acoustic chords)
   B                            Abm
Of all the things I still remember
                                      F#
summer’s never looked the same
                                                  E
The years go by and time just seems to fly
                  B
But the memories remain

    B                                               Abm
In the middle of September we'd still play out in the rain
    F#                  E                     B
Nothing to lose but everything to gain
      F#                
reflecting now on how things’ve been
   E
It was worth it in the end

Verse 2
Now it all seems so clear
there's nothing left to fear
So we made our way by finding what was real
Now the days are so long 
that summer's moving on
We reach for something that's already gone

Chorus 2
Guitar 2 same chords as chorus 1

Guitar 3 breaks in with not so heavy distortion
   B5                             Ab5
Of all the things I still remember
                                      F#5
summer’s never looked the same
                                                 E5
years go by and time just seems to fly
                           B5
but the memories remain

  B5                             Ab5 
In the middle of September 
                                 F#5
we'd still play out in the rain
         E5                                 B5
Nothing to lose but everything to gain
  F#5
Reflecting now on how things 've been
     E5
It was worth it in the end

Bridge
Guitar 3 plays B5 and E5 alternating, palm muted behind guitar 1 playing the bridge 
Solo
Guitar 3(palm muted) playing behind guitar 1 playing the solo
  B5                                        E5
We knew we had to leave this town
               B5                              E5
But we never knew when and we never knew how
           B5                           E5
We would end up here the way we are
        B5                                  E5
Yeah we knew we had to leave this town
   B5                                              E5                 F#5  Ab5  E5
But we never knew when and we never knew how

Chorus
   B5                             Ab5
Of all the things I still remember
                                      F#5
summer’s never looked the same
                                                 E5
years go by and time just seems to fly
                           B5
but the memories remain

  B5                             Ab5 
In the middle of September 
                                 F#5
We’d still play out in the rain
         E5                                 B5
Nothing to lose but everything to gain
  F#5
Reflecting now on how things 've been
     E5~
It was worth it in the end

Outro:
Ends with intro arpeggios on guitars 1 and 2
Guitars fade out in the end

Please rate and comment on this piece. Thank you
Tap to rate this tab
 
# A B C D E F G H I J K L M N O P Q R S T U V W X Y Z