Chris Daughtry - Traffic Light tab

only Power Tabs

-intro verse-
start at 0:08
pm..........................pm send out________________________
---------------------------------------------------------------|
---------------------------------------------------------------|
-------------------8--------6----------------------------------|
-6--------3--------8-(x32)--6-(x32)----------------------------|
-6-(x32)--3-(x32)--6--------4----------------------------------|
-4--------1----------------------------------------------------|

-refrein-
start at 0:40
---------------------------------------------------------------|
---------------------------------------------------------------|
----------8------------------------8---------------------------|
-6--------8-(x16)--3--------6------8-(x8)----------------------|
-6-(x16)--6--------3-(x16)--6-(x8)-6---------------------------|
-4-----------------1--------4----------------------------------|

continue at 0:56
---------------------------------------------------------------|
---------------------------------------------------------------|
-6-----------------8-------6-----------------------------------|
-6-(x16)--3--------8-(x8)--6-(hold 4seconds)-------------------|
-4--------3-(x16)--6-------4-----------------------------------|
----------1----------------------------------------------------|

-along refrain-
start at 1:10
---------------------------------------------------------------|
---------------------------------------------------------------|
---------------------------------------------------------------|
-6--------3----------------------------------------------------|
-6-(x16)--3-(x16)----------------------------------------------|
-4--------1----------------------------------------------------|

-verse-
start at 1:19
pm..........................pm send out________________________
---------------------------------------------------------------|
---------------------------------------------------------------|
-------------------8--------6----------------------------------|
-6--------3--------8-(x32)--6-(x32)----------------------------|
-6-(x32)--3-(x32)--6--------4----------------------------------|
-4--------1----------------------------------------------------|

-refrein-
start at 1:50
---------------------------------------------------------------|
---------------------------------------------------------------|
----------8------------------------8---------------------------|
-6--------8-(x16)--3--------6------8-(x8)----------------------|
-6-(x16)--6--------3-(x16)--6-(x8)-6---------------------------|
-4-----------------1--------4----------------------------------|

continue at 2:06
---------------------------------------------------------------|
---------------------------------------------------------------|
-6-----------------8-------6-----------------------------------|
-6-(x16)--3--------8-(x8)--6-(x16)-----------------------------|
-4--------3-(x16)--6-------4-----------------------------------|
----------1----------------------------------------------------|

-along refrain-
start at 2:20
---------------------------------------------------------------|
---------------------------------------------------------------|
-3--------6-----------------8-------6-------8------------------|
-3-(x16)--6-(x16)--3--------8-(x8)--6-(x16)-8-(hold 4seconds)--|
-1--------4--------3-(x16)--6-------4-------6------------------|
-------------------1-------------------------------------------|

-refrein-
start at 2:42
---------------------------------------------------------------|
---------------------------------------------------------------|
----------8------------------------8---------------------------|
-6--------8-(x16)--3--------6------8-(x8)----------------------|
-6-(x16)--6--------3-(x16)--6-(x8)-6---------------------------|
-4-----------------1--------4----------------------------------|

continue at 2:58
---------------------------------------------------------------|
---------------------------------------------------------------|
-6-----------------8-------6-----------------------------------|
-6-(x16)--3--------8-(x8)--6-(x16)-----------------------------|
-4--------3-(x16)--6-------4-----------------------------------|
----------1----------------------------------------------------|

-outro-
start at 3:12
---------------------------------------------------------------|
---------------------------------------------------------------|
----------8-------6--------------------------------------------|
-3--------8-(x8)--6-(hold to end)------------------------------|
-3-(x16)--6-------4--------------------------------------------|
-1-------------------------------------------------------------|

Simple and very nice track:)
Tap to rate this tab
 
# A B C D E F G H I J K L M N O P Q R S T U V W X Y Z