Song name
# A B C D E F G H I J K L M N O P Q R S T U V W X Y Z

Chris Daughtry - Outta My Head tab

Tabbed By : Yousif Jamal
Country : Iraq / Baghdad
Band : Daughtry
Title : Outta My Head
Album : Break The Spell
Year : 2011
Tuning : Standard
Note : No Lead Parts Were Tabbed , Try To Tab it yourself !

Intro  [2x] [00:18]
   A5                 C5    G5
E|---------------------------------|   
B|-------------]-------------------|   
G|-2--2--------]------5555---------|   
D|-2--2--35-35-]-x3---5555-5555----|   
A|-0--0--35-35-]------3333-5555----|   
E|-------------------------3333----|

Verse 1 [00:18 : 00:52]
Part 1
   A5                 C5    G5
E|---------------------------------|   
B|-------------]-------------------|   
G|-2--2--------]------5555---------|   
D|-2--2--35-35-]-x3---5555-5555----|   [2x]
A|-0--0--35-35-]------3333-5555----|   
E|-------------------------3333----|

Part2
put my mind to rest and try to sleep it off ......
    F5 D5    A5   C5    F5  D5
E|----------------------------|   
B|----------------------------|   
G|------7---------------10---7|   
D|-3----7----7----10----10---7|   
A|-3----5----7----10----8----5|   
E|-1---------5----8-----------|

Chorus1 [00:52 : 01:10]
      A5     E5      F5      C5      G5
E|-----------------------------------------|   
B|-----------------------------------------|   
G|-2-2-2-2-----------------5-5-5-5---------|   
D|-2-2-2-2-2-2-2-2-3-3-3-3-5-5-5-5-5-5-5-5-|   [2x] 
A|-0-0-0-0-2-2-2-2-3-3-3-3-3-3-3-3-5-5-5-5-|   
E|---------0-0-0-0-1-1-1-1---------3-3-3-3-|

Intro [01:10 : 01:19] [1x] 
Verse [ 01:19 : 1:52] 
Chorus [1:52 : 2:10]

Then Play Chorus Chords Again [2:10 : 2:30]
Verse (Part 2) [ 2:30 : 2:50]
Chorus [2:50 : the End]
Tap to rate this tab
 
# A B C D E F G H I J K L M N O P Q R S T U V W X Y Z