Song name
# A B C D E F G H I J K L M N O P Q R S T U V W X Y Z

Chris Daughtry - Loosing My Mind tab

By Anthony Mobbs
  this is my first tab but this was learned by ear so i hope ya like it
   peace.Half step Down tuning

Intro/Verse
|-------------------------0-----------------------------------|
|-0h2-2-0-3-3-3-----------3-----------------------------------|
|-2---2-2-1h2-1--x4-------2------then back to first part x4---|
|-2---2-2-------------4---------------------------------------|
|---------------------4---------------------------------------|
|---------------------2---------------------------------------|
  you can probly figure out the strum pattern its pretty easy
Chorus
|-----------------------------------------|----------0-0-0------------|
|--------------2--------------------------|-0h2-2-0--3-3-3------------|
|--------7-----2------|-------7---4---7---|-2---2-2--1h2-1------7-----|
|--4-----7-----2--2---|---4---7---4---7---|-2---2-2---------4---7-----|
|--4-----5--------2---|---4---5---2---5---|-----------------4---5-----|
|--2--------------0---|---2---------------|-----------------2---------|

Intro/Verse


Chorus


Bridge:cant understand why you got me so far gone
|------------------------------------------------------------------|
|------------------------------------------------------------------|
|-4------4---7-----------------------------------------------------|
|-4---4--4---7-------back to end of course-------------------------|
|-2---4--2---5-----------------------------------------------------|
|-----2------------------------------------------------------------|

End
|-----------------------------------------------------------------------|
|-----------------------------------------------------------------------|
|-4---6---7-------------------------------------------------------------|
|-4---6---7-------------------------------------------------------------|
|-2---4---5-------------------------------------------------------------|
|-----------------------------------------------------------------------|

this tab is very acurate but reading it may be a problem
my acount name is anthony17 if you have any tips on how
to write tabs.if you like it then ill be putting more Daughtry up peace.
Tap to rate this tab
# A B C D E F G H I J K L M N O P Q R S T U V W X Y Z