Song name
# A B C D E F G H I J K L M N O P Q R S T U V W X Y Z

Chris Daughtry - Rescue Me tab

By:Anthony Mobbs
another favorite daughtry.i got this song pretty dang good 
so hope ya get it.    half step down tuning
 INTRO
|----3--------------------------------------------------------------|
|----3--------------------------------------------------------------|
|----0-x3-----------------------------------------------------------|
|-------------------------------------------------------------------|
|--2----------------0h2h33332--2------------------------------------|
|--3---------------------------3------------------------------------|
   theres a picking pattern in the verse u can figure it out its easy.
 VERSE
|--3---3---3---3---3---2--------------------------------------------|
|--3---3---3---3---3---3--------------------------------------------|
|--0---0---0---0---0---2--------------------------------------------|
|--0---2---0---2---2---0--------------------------------------------|
|--2---2---2---2---3------------------------------------------------|
|--3---0---3---0---0------------------------------------------------|

 CHORUS
|-------------------------------------------------------------------|
|-------------------------------------------------------------------|
|-------------5---7-------------------------------------------------|
|---5-----2---5---7-------------------------------------------------|
|---5-----2---3---5-------------------------------------------------|
|---3-----0---------------------------------------------------------|

 VERSE again

 BRIDGE
|-------------------------------------------------------------------|
|-------------------------------------------------------------------|
|--5-x15--------------5-x2---7-x5-----------------------------------|
|--5-------2-x15------5------7--------4--6--7--9--------------------|
|--3-------2----------3------5--------4--6--7--9--------------------|
|----------0--------------------------2--4--5--7--------------------|

CHORUS

 there u go hope ya like it bridge im a little worried about but i think
 its pretty close.please comment if u need anything.peace
Tap to rate this tab
 
# A B C D E F G H I J K L M N O P Q R S T U V W X Y Z