Song name
# A B C D E F G H I J K L M N O P Q R S T U V W X Y Z

Chris Daughtry - Outta My Head tab

Tabbed By: TheGuardian
Country: USA
Band: Daughtry
Title: Outta My Head
Album: Break the Spell
Year: 2011
Tuning: EADGBe
NOTE:   I tried to find the solo and couldn't find it so I just played with it and was
finally able to get it somewhat close. Play with it for a little while and you will get
the timing. This will at least give you a good jumping off point.

Intro: [2x] [0:18]
e|-------------------------------------------------------------|
B|-------------------------------------------------------------|
G|-------------------------------------------------------------|
D|--7---7--------------------7---7-----------------------------|
A|--7---7--------------------7---7-----------------------------|
E|--5---5---8h10---8h10------5---5---8h10---8h10---------------|

e|-------------------------------------------------------------|
B|-------------------------------------------------------------|
G|-------------------------------------------------------------|
D|--7---7-----------------10-10-10-10---5-5-5-5----------------|
A|--7---7-----------------10-10-10-10---5-5-5-5----2-----------|
E|--5---5---8h10---8h10---8--8--8--8----3-3-3-3----0-----------|


Verse 1 [0:18 - 0:52]
e|-------------------------------------------------------------|
B|-------------------------------------------------------------|
G|-------------------------------------------------------------|
D|--7---7--------------------7---7-----------------------------|
A|--7---7--------------------7---7-----------------------------|
E|--5---5---8h10---8h10------5---5---8h10---8h10---------------|

e|-------------------------------------------------------------|
B|-------------------------------------------------------------|
G|-------------------------------------------------------------|
D|--7---7-----------------10-10-10-10---5-5-5-5----------------|
A|--7---7-----------------10-10-10-10---5-5-5-5----2-----------|
E|--5---5---8h10---8h10---8--8--8--8----3-3-3-3----0-----------|

Bridge [0:38 - 0:52]
e|--------------------------------------|
B|--------------------------------------|
G|------7---------------10---7----------|
D|-3----7----7----10----10---7----------|
A|-3----5----7----10----8----5----------|
E|-1---------5----8---------------------|

Chorus [2x] [0:52 - 1:10]
        (This is a very easy to get, just listen to the song.)
e|--------------------------------------------------------------------------|
B|--------------------------------------------------------------------------|
G|-2-2-2-2-2-2-------------------------5-5-5-5------------------------------|
D|-2-2-2-2-2-2-2-2-2-2-2-2-3-3-3-3-3-3-5-5-5-5-5-5-5-5----------------------|
A|-0-0-0-0-0-0-2-2-2-2-2-2-3-3-3-3-3-3-3-3-3-3-5-5-5-5--2-------------------|
E|-------------0-0-0-0-0-0-1-1-1-1-1-1---------3-3-3-3--0-------------------|

Verse 2 [3x] [1:10 - 1:19]

e|-------------------------------------------------------------|
B|-------------------------------------------------------------|
G|-------------------------------------------------------------|
D|--7---7--------------------7---7-----------------------------|
A|--7---7--------------------7---7-----------------------------|
E|--5---5---8h10---8h10------5---5---8h10---8h10---------------|

e|-------------------------------------------------------------|
B|-------------------------------------------------------------|
G|-------------------------------------------------------------|
D|--7---7-----------------10-10-10-10---5-5-5-5----------------|
A|--7---7-----------------10-10-10-10---5-5-5-5----2-----------|
E|--5---5---8h10---8h10---8--8--8--8----3-3-3-3----0-----------|

Bridge [1:39 - 1:52]
e|--------------------------------------|
B|--------------------------------------|
G|------7---------------10---7----------|
D|-3----7----7----10----10---7----------|
A|-3----5----7----10----8----5----------|
E|-1---------5----8---------------------|

Chorus [2x] [1:52 - 2:10]
        (This chorus is a little different in that you are preparing for the
         solo. The bends are a full step I believe, but play with it till it
         feels right.)
e|--------------------------------------------------------------------------|
B|---------------------------------------11B--13B--11B----------------------|
G|-2-2-2-2-2-2--------------------------------------------------------------|
D|-2-2-2-2-2-2-2-2-2-2-2-2-3-3-3-3-3-3--------------------------------------|
A|-0-0-0-0-0-0-2-2-2-2-2-2-3-3-3-3-3-3--------------------------------------|
E|-------------0-0-0-0-0-0-1-1-1-1-1-1--------------------------------------|


Solo [2x] [2:10 - 2:30]
      (Again Bend are a full step I believe. There is a slight delay in the             slide)
e|--------------------------------------------------------------------------|
B|-12B-12-10--------12B-12-10--------12B-12-10---11B--13B--11B--------------|
G|-----------9-/-10-----------9-/-10-----------9----------------------------|
D|--------------------------------------------------------------------------|
A|--------------------------------------------------------------------------|
E|--------------------------------------------------------------------------|

Bridge [2:30 - 2:44]
e|--------------------------------------|
B|--------------------------------------|
G|------7---------------10---7----------|
D|-3----7----7----10----10---7----------|
A|-3----5----7----10----8----5----------|
E|-1---------5----8---------------------|

NOTE: From 2:44 - 2:50 this is synth music but I can't pull out any guitar lines. I
usually just wait till about 2:48 and do a full neck slide back into the chorus. It's really
up to you though.

Chorus[2x] (2:44 - 3:09)
e|--------------------------------------------------------------------------|
B|---------------------------------------11B--13B--11B----------------------|
G|-2-2-2-2-2-2--------------------------------------------------------------|
D|-2-2-2-2-2-2-2-2-2-2-2-2-3-3-3-3-3-3--------------------------------------|
A|-0-0-0-0-0-0-2-2-2-2-2-2-3-3-3-3-3-3--------------------------------------|
E|-------------0-0-0-0-0-0-1-1-1-1-1-1--------------------------------------|

Outro Solo [2x] [3:09 - 3:29)
e|--------------------------------------------------------------------------|
B|-12B-12-10--------12B-12-10--------12B-12-10---11B--13B--11B--------------|
G|-----------9-/-10-----------9-/-10-----------9----------------------------|
D|--------------------------------------------------------------------------|
A|--------------------------------------------------------------------------|
E|--------------------------------------------------------------------------|

I hope this helps. There is a second guitar part played on the verse but I am still
working it out. Also the Chorus section with the bends is actually played through the entire
song but if you are only playing it sounds better through the begin till right before 
the solo to just play the power chords. Thanks and Enjoy.

All music is copyright to Chris Daughtry and his record label.
Tap to rate this tab
# A B C D E F G H I J K L M N O P Q R S T U V W X Y Z