Song name
# A B C D E F G H I J K L M N O P Q R S T U V W X Y Z

Chris Daughtry - Over You tab

Artist: Chris Daughtry
Title: Over You
Album: Daughtry

Tune 1/2 down

The first tab ive done, :P hope u guys like it!


Strumming Pattern: DD DUUD DU

Intro/Verse(0.00 - 0.33)(Clean):
eb|---------------------------------|
Bb|---------------------------------|
Gb|-9-------------------------------|    X3
Db|-9---9---11---9---7--------------|
Ab|-7---9---11---9---7--------------|
Eb|-----7---9----7---5--------------|

Pre Chorus(0.34 - 0.40)(Distortion):

eb|---------------------------------|
Bb|---------------------------------|
Gb|---------------------------------|
Db|-3---6---9-----------------------|    X1
Ab|-3---6---9-----------------------|
Eb|-1---4---7-----------------------|
    .   .

Chorus(0.41 - 1.11(Distortion)):
eb|---------------------------------|
Bb|---------------------------------|
Gb|-9-------------------------------|     X2
Db|-9---9---11---9---7--------------| 
Ab|-7---9---11---9---7--------------|
Eb|-----7---9----7---5--------------|

eb|---------------------------------|
Bb|---------------------------------|
Gb|---------------------------------|
Db|-3---6---9-----------------------|    X1
Ab|-3---6---9-----------------------|
Eb|-1---4---7-----------------------|

Solo 1(1.12 - 1.17)(Distortion):

eb|--------------------------------------------------------------|
Bb|-10-9---10-9--------------------------------------------------|
Gb|------9------9-11-12-12-11-9-9slide11slide9-------------------|
Db|---------------------------------------------9slide10slide9---|    X1
Ab|--------------------------------------------------------------|
Eb|--------------------------------------------------------------|

Riff (1.17-1.39)(Chorus):

eb|-------------|    eb|-------------|    
Bb|-16----------|    Bb|-15----------|     
Gb|----15-------|    Gb|----15-------|
Db|-------------| X4 Db|-------------|  X4
Ab|-------------|    Ab|-------------|
Eb|-------------|    Eb|-------------|

eb|------------------------------------------------------------|
Bb|-16-----16------18------18--14-----14------14----14slide15--|         
Gb|----15------15------15----------14-----14-----14------------|
Db|------------------------------------------------------------|    X1  
Ab|------------------------------------------------------------|
Eb|------------------------------------------------------------|

eb|-------------|    eb|-------------|    
Bb|-16----------|    Bb|-15----------|     
Gb|----15-------|    Gb|----15-------|
Db|-------------| X4 Db|-------------|  X4 
Ab|-------------|    Ab|-------------|
Eb|-------------|    Eb|-------------|

eb|---------------------------|
Bb|-16-----16------18------18-|      
Gb|----15------15------15-----|
Db|---------------------------|   X1  
Ab|---------------------------|
Eb|---------------------------|

Pre-Chorus(1.39-1.44)
eb|---------------------------------|
Bb|---------------------------------|
Gb|---------------------------------|
Db|-3---6---9-----------------------|    X1
Ab|-3---6---9-----------------------|
Eb|-1---4---7-----------------------|

Chorus(1.45 - 2.15):
eb|---------------------------------|
Bb|---------------------------------|
Gb|-9-------------------------------|     X2
Db|-9---9---11---9---7--------------| 
Ab|-7---9---11---9---7--------------|
Eb|-----7---9----7---5--------------|

eb|---------------------------------|
Bb|---------------------------------|
Gb|---------------------------------|
Db|-3---6---9-----------------------|    X1
Ab|-3---6---9-----------------------|
Eb|-1---4---7-----------------------|

SOLO 2(2.16-2.28):
eb|--------------------------------------------|
Bb|-10-9---10-9--------------------------------|
Gb|------9------9-11-13-12-12slide16-14-12-11--|
Db|--------------------------------------------|
Ab|--------------------------------------------|
Eb|--------------------------------------------|

eb|---------------------------------------------------|
Bb|----17----17-------17p-----17----17-------17p------|
Gb|-15----15-----15--------15----15------15-------13~-|
Db|---------------------------------------------------|
Ab|---------------------------------------------------|
Eb|---------------------------------------------------|

Acoustic:(2.29 - 2.37)

Chorus(2.37 - 3.05):
eb|----------|
Bb|----------|
Gb|----------|     X5
Db|-----7----| 
Ab|-----7----|
Eb|-----5----|

eb|---------------------------------|
Bb|---------------------------------|
Gb|-9-------------------------------|     X2
Db|-9---9---11---9---7--------------| 
Ab|-7---9---11---9---7--------------|
Eb|-----7---9----7---5--------------|

eb|---------------------------------|
Bb|---------------------------------|
Gb|---------------------------------|
Db|-3---6---9-----------------------|    X1
Ab|-3---6---9-----------------------|
Eb|-1---4---7-----------------------|

Riff (3.06-end)(Chorus):

eb|-------------|    eb|-------------|    
Bb|-16----------|    Bb|-15----------|     
Gb|----15-------|    Gb|----15-------|
Db|-------------| X4 Db|-------------|  X4
Ab|-------------|    Ab|-------------|
Eb|-------------|    Eb|-------------|

eb|------------------------------------------------------------|
Bb|-16-----16------18------18--14-----14------14----14slide15--|         
Gb|----15------15------15----------14-----14-----14------------|
Db|------------------------------------------------------------|    X1  
Ab|------------------------------------------------------------|
Eb|------------------------------------------------------------|

eb|-------------|    eb|-------------|    
Bb|-16----------|    Bb|-15----------|     
Gb|----15-------|    Gb|----15-------|
Db|-------------| X4 Db|-------------|  X4 
Ab|-------------|    Ab|-------------|
Eb|-------------|    Eb|-------------|

eb|--------------------------------------------------------|
Bb|-16-----16------18------18--14-----14-----14-----14-----|    
Gb|----15------15------15----------14-----14-----14----14--|
Db|--------------------------------------------------------|   X1  
Ab|--------------------------------------------------------|
Eb|--------------------------------------------------------|

eb|---------------------------------|
Bb|---------------------------------|
Gb|---------------------------------|
Db|-3---6---9-----------------------|    X1
Ab|-3---6---9-----------------------|
Eb|-1---4---7-----------------------|
Tap to rate this tab
# A B C D E F G H I J K L M N O P Q R S T U V W X Y Z