Song name
# A B C D E F G H I J K L M N O P Q R S T U V W X Y Z

Chris Daughtry - Home tab

Tabbed By: Josh Daley

Tuning: Eb Ab Db Gb Bb Eb (Half-step down)


Intro/Verse:

--3----3----|
--3----3----|
--0----0----|
--0----0----|
--x----3----|
--3----x----|



Pre chorus:

--0--2--3----0--2--3----|
--3--3--3----3--3--3----|
--0--2--0----0--2--0----|
--2--0--0----2--0--0----|
--2-----3----2-----3----|
--0-----x----0-----x----|



Chorus:

--3--x--3--x--0--x--3----|
--3--3--3--3--3--3--3----|
--0--2--0--2--0--2--0----| x2
--0--0--0--0--2--0--0----|
--x-----3-----2-----3----|
--3-----x-----0-----x----|

-0--x--3----|
-3--3--3----|
-0--2--0----|
-2--0--0----|
-2-----3----|
-0-----x----|



Bridge:

--2----3----2--x--3----|
--3----1----0--3--3----|
--2----0----0--2--0----| x2
--0---------0--0--0----|
------------2-----3----|
------------0-----x----|

--0--2--3---|
--0--3--1---|
--0--2--0---| x2
--2--0------|
--2---------|
--0---------|



Ending:

--0--2--3---0--2--3---3----|
--0--3--3---0--3--3---3----|
--0--2--0---0--2--0---0----|
--2--0--0---2--0--0---0----|
--2-----3---2-----3---x----|
--0-----x---0-----x---3----|
Tap to rate this tab
# A B C D E F G H I J K L M N O P Q R S T U V W X Y Z