Song name
# A B C D E F G H I J K L M N O P Q R S T U V W X Y Z

Chris Daughtry - Start Of Something Good tab

Tabbed by: Josh Daley

Tuning: E A D G B E - Capo 1



Intro, Interlude & Outro:

--3----3----|
--3----3----|
--0----0----|
--0----x----|
--x----3----|
--3---------|



Verse:

--3----3----0---2-3----|
--3----3----0---3-3----|
--0----0----0---2-0----| x2
--0----x----2---0-x----|
--x----3----2-----3----|
--3---------0----------|



Pre-chorus:

--2----3----|
--3----3----|
--2----0----| x2
--0----x----|
-------3----|
------------|



Chorus:

--3----2----0---2-3----|
--3----3----0---3-3----|
--0----2----0---2-0----| x2
--0----0----2---0-x----|
--x---------2-----3----|
--3---------0----------|

--0----3----|
--0----3----|
--0----0----|
--2----x----|
--2----3----|
--0---------|



Bridge:

--0---2-3---2-0---2-3----|
--0---3-3---3-0---3-3----|
--0---2-0---2-0---2-0----|  ~ Play first 4 bars of verse ~
--2---0-x---0-2---0-x----|
--2-----3-----2-----3----|
--0-----------0----------|



Final chorus:

--3----2----0---2-3----|
--3----3----0---3-3----|
--0----2----0---2-0----| x2
--0----0----2---0-x----|
--x---------2-----3----|
--3---------0----------|

--0----3----|
--0----3----|
--0----0----| x2
--2----x----|
--2----3----|
--0---------|
Tap to rate this tab
# A B C D E F G H I J K L M N O P Q R S T U V W X Y Z