Song name
# A B C D E F G H I J K L M N O P Q R S T U V W X Y Z

Chris Daughtry - Crawling Back To You Acoustic tab

This is a simple tab to play on electric. I've only put in the basics.
I tried to line up the chords with the lyrics, making it easier to follow.
It is a little bit off though. You'll have to listen to the song.
Strumming patterns are up to you. Play it how YOU hear it :)

The 'subtle chord change' right at the end is my own touch.
I reckon it sounds better. Let your own ears decide.
Thanks for looking :)



[FIRST VERSE]
|--------------------------------------------|
|--------------------------------------------|
|-5----------------------------------3-------|
|-5----------------------------------3----6--|
|-3----------------------------------1----6--|
|-----------------------------------------4--|
Lessons learned, bridges burned to the ground,

|----------------------------------------|
|----------------------------------------|
|-----------------------------3----------|
|---------5-------------------3----------|
|---------5-------------------1----------|
|---------3------------------------------|
And it's too late now to put out the fire,

|-----------------------------------------------|
|-----------------------------------------------|
|-5-------------------------------------3-------|
|-5-------------------------------------3----6--|
|-3-------------------------------------1----6--|
|--------------------------------------------4--|
Tables turned, and I'm the one who's burning now,

|---------------------|
|---------------------|
|---------------------|
|--------5------------|
|--------5------------|
|--------3------------|
Well I'm doing alright,
'Til I close my eyes

|-----------------------|
|-----------------------|
|---3-------------------|
|---3-------------------|
|---1-------------------|
|-----------------------|
And then I see your face,

|-------------------|
|-------------------|
|---------------5---|
|---------------5---|
|---------------3---|
|-------------------|
And it's no surprise.

******************************************************

[CHORUS:]
|--------------------------------------|
|--------------------------------------|
|-------------------8------------------|
|-6-----------------8------------------|
|-6-----------------6------------------|
|-4------------------------------------|
Just like that I'm crawling back to you,

|------------------------------|
|------------------------------|
|-3------------5---------------|
|-3------------5---------------|
|-1------------3---------------|
|------------------------------|
Just like you said I would yeah,

|----------------------------------------------------|
|----------------------------------------------------|
|---------------------------8-----------------3----5-|
|-6-------------------------8-----------------3----5-|
|-6-------------------------6-----------------1----3-|
|-4--------------------------------------------------|
I swallow my pride, now I'm crawling back to you,

|----------------------------------------|
|----------------------------------------|
|----------------------------8-----------|
|----6-----------------------8-----------|
|----6-----------------------6-----------|
|----4-----------------------------------|
I'm out of my head, can't wait any longer,

|-----------------------------------------|
|-----------------------------------------|
|-5------------------3--------------------|
|-5------------------3--------------------|
|-3------------------1--------------------|
|-----------------------------------------|
Down on my knees, I thought I was stronger,

|-----------------------------------|
|-----------------------------------|
|-----------------------------------|
|-3-------------5-----------------6-|
|-3-------------5-----------------6-|
|-1-------------3-----------------4-|
Just like that, like you said I'd do,

|--------------------------------------|
|--------------------------------------|
|----3----------------8----5----3------|
|----3----------------8----5----3----6-|
|----1----------------6----3----1----6-|
|------------------------------------4-|
I'm crawling back to you.

******************************************************
******************************************************

[SECOND VERSE] - Played the same as the first.

******************************************************
******************************************************

[SECOND CHORUS] - you guessed it! except the last bar...
|--------------------------------------|
|--------------------------------------|
|----3----------------8----------------|
|----3----------------8--
                        
                    
Tap to rate this tab
# A B C D E F G H I J K L M N O P Q R S T U V W X Y Z