Song name
# A B C D E F G H I J K L M N O P Q R S T U V W X Y Z

Chris De Burgh - Carry Me tab

--------------------------------
Chris De Burgh - Carry Me - Solo
--------------------------------

Tab by MikeyP (mikeyguitar@live.co.uk)

This is a nice and easy solo for beginners like myself! It's my first attempt
at tabbing, so if you see any mistakes (or if you like it) let me know!

Enjoy!

e----------------------5------------------5--88-8h10-4/5---------------------|
B----58-8/10-88--5686-8--8-5h6p5--------------------------5665---------------|
G--57---------------------------7--7b9-7p5--------------------5-57b9r7-55----|
D--------------------------------------------------------------5-------------|
A----------------------------------------------------------------------------|
E----------------------------------------------------------------------------|
Tap to rate this tab
 
# A B C D E F G H I J K L M N O P Q R S T U V W X Y Z