Song name
# A B C D E F G H I J K L M N O P Q R S T U V W X Y Z

Chris De Burgh - Borderline tab

This is my first tab so please rate it.
There are many ways to play this solo but i think this is the easiest way.
I have made a low and a high version.

| ~  Vibrato
| /  Slide Up
| \  Slide Down
| () You can play this note but it is not necessary

Low version:
E:--------6-5-3-5~---3-1/3-5---------6--6--6--6---------|
B:-/1-(1)--------------------6~-----------------5-6-8---|
G:-------------------------------(7)--------------------|
D:------------------------------------------------------|
A:------------------------------------------------------|
E:------------------------------------------------------|

E:----6-5-3-5~---3-1/3-5-------6--6--6-------5-3-5------|
B:-----------------------6~------------------------6~---|
G:-7----------------------------------------------------|
D:------------------------------------------------------|
A:------------------------------------------------------|
E:------------------------------------------------------|

High version:
E:----------18-17-15-17~---15-13/15-17-----------18--18--18--18------------|
B:-/13-(13)----------------------------18~----------------------17-18-20---|
G:------------------------------------------(19)---------------------------|
D:-------------------------------------------------------------------------|
A:-------------------------------------------------------------------------|
E:-------------------------------------------------------------------------|

E:----18-17-15-17~---15-13/15-17--------18--18--18-------17-15-17----------|
B:-------------------------------18~------------------------------18~------|
G:-19----------------------------------------------------------------------|
D:-------------------------------------------------------------------------|
A:-------------------------------------------------------------------------|
E:-------------------------------------------------------------------------|
Tap to rate this tab
# A B C D E F G H I J K L M N O P Q R S T U V W X Y Z