Song name
# A B C D E F G H I J K L M N O P Q R S T U V W X Y Z

Chris Duarte - My Way Down tab

Help us improve GuitareTab! Take a short survey!
-------------------------------------------------------------------------------
			     MY WAY DOWN - Chris Duarte
-------------------------------------------------------------------------------

Tabbed by: Isaias Garcia

Tuning: 1/2 step down


                   ^  ^    ^      ^                           PM           
      H        E   E  E    E      E  S S  E   S   S  E   E    S   S   E    
D#||--------------------------|----------11----------8--10----------------|
A#||--------------------------|----------11----------8--10----------------|
F#||--------------------------|---------------x-(10)-8--10----------------|
C#||------------------8b--10--|--10--x--------x---------------x------10~--|
G#||--------------10----------|--------0--------------------(10)-(0)------|
D#||------------------8-------|---8---------------------------------------|

                 
   E  E  E   S   S  S S                          S  S    E.  S  
------8-----10h-11-10-8----------------------------------8---8-|
------8-----10h-11-10-8----------------------------------8---8-|
------8--x---------10-8-------------------------------8g10-----|
---L-----x---------------------------------------x-------------|
------------------------------------------------10-10----------|
---------------------------------------------------------------|


   E   S  S   S  S S S  E    E   E    E       E    E    S S  E   E   E    S E.    
------------------------------------------|--------------------------------------|
------------------------------------------|---------------8---------------x------|
-------------(8)-------(8)----------------|-------10b--10-8---------10b---x-8b---|
--10~----(8)--8--8-8-8--8---10-------10~--|---L~------------10--10---------------|
--------------------------------(0)-------|--------------------------------------|
-------x----------------------------------|--------------------------------------|


   ^                                                                                
   E   S  S S S  S  S  E   E  S  S E      E   E  S  S   S   S  S S  S   S    E.  S  
----------------------11---------------|-----10--------10h-11-10-8-----------8---8-|
----------------------11-----------8~--|--L--10--------10h-11-10-8-----------8---8-|
-----------------------------------8~--|--L--10--x-----10h-11-10-8--------8g10---8-|
--10--------8-8-10-10---------8-10-----|---------x---------------------------------|
------10-10---------------10-----------|-----------(0)-----------------10----------|
---------------------------------------|---------------------------(0)-------------|


   E  S S S S E  E   E  E  E      E   S  S S E.    E   E     E.  S  
------------------------------|------------------------------8---8-|
------------------------------|------------------------------8---8-|
------------------------------|---------------------------8g10---8-|
--10--x-x-8-8-8--8--10--x--8--|------------------------------------|
------------------------------|------------6-6---6g8--10-----------|
------------------------------|--(0)--6h-8-------------------------|


   E   E   E  S S E   E  E   E       E  E  E   S   S  S S  S  S    E.  S  
------11--10------8--10----------|------8-----10h-11-10-8----------8---8-|
------11--10------8--10----------|------8-----10h-11-10-8----------8---8-|
----------10--x-x-8--10----------|------8-----10h-11-10-8-------8g10-----|
--10----------x-x-----------10~--|---L-----x--------------10-10----------|
---------------------------------|---------------------------------------|
---------------------------------|---------------------------------------|


   E.  S S S S S E   E  E   E       S   S   S   S  S S  E   E   E   S E.    
--------------------------------|------------------------------------------|
--------------------------------|------------------------------------------|
--------------------------------|-------x--10s-12-10-8---------10b----8b---|
--10---x-8-8-8-8-8--10-----10~--|---L~-----------------10--10-------x------|
--------------------------------|------(0)---------------------------------|
--------------------------------|------------------------------------------|


   ^                   ^                                                           
   E   S  S S S  S  S  E   E  S S E      E    E  S  S   S   S  S S  S  S    E.  S  
----------------------11--------------|------10--------10h-11-10-8----------8---8-|
----------------------11----------8~--|--L~--10--------10h-11-10-8----------8---8-|
--10------------------------------8~--|--L~--10--------10h-11-10-8-------8g10---8-|
------------8-8-10-10---------x-x-----|----------------------------10-10----------|
------10-10---------------10----------|------------(0)----------------------------|
--------------------------------------|-------------------------------------------|


   E.  S S S S S E  E  S S S  S    S  S S  S E  S S E   E   S E.    
--------------------------------|----------------------------------|
--------------------------------|----------------------------------|
--------------------------------|----------------------10b----8b---|
--10---x-8-8-8-8----------------|----------------------------------|
-----------------8--6--x-x-8h-9-|--8p-6----------------------------|
--------------------------------|-------8p-6-8--x-6----------------|


   E   S  S S S  S  S  Q    Q       E   E  E   S   S     E.  S  S S  S S  
----------------------11---------|-----------------------8---8--8--------|
----------------------11---------|-----------------------8---8--8--------|
---------------------------------|--------------------8g10-----10-8------|
--10--------8-8-10-10------------|---------8--10--------------------10-8-|
------10-10----------------------|-----10--------(10)--------------------|
---------------------------------|---------------------------------------|


   Q    Q    E  S  S    S S  S  S     Q    Q    H           E   E   E   S  S E   E  Q     
--------------------------8-------|----------------------|---------11--------8--10-------|
---------------------8g10-8-------|----------------------|---------11--------8--10-------|
---------------------8g10-8-------|----------------------|-------------------8--10-------|
--10------------8-----------10p-8-|--10------------------|-------------------------------|
------------------10--------------|----------------------|-----10------10-10-------------|
----------------------------------|----------------------|-------------------------------|


             PM PM                                                                                 
  E   E  E   S  S    E.  S  S  S  E      Q    Q    E  E   S S  S  S      Q    Q    E  S S S S  E   
---------------------8---8--8--------|-------------------10-8--------|----------------------------|
---------------------8---8--8--------|-------------------10-8--------|----------------------------|
------------------8g10-----10p-8-----|-------------------10-8----(0)-|----------------------------|
---------8--10-------------------10--|--10------------8-------10-----|--10------------8-8-8-8-----|
-----10--------10--------------------|-------------------------------|------------------------10--|
-------------------------------------|-------------------------------|----------------------------|


  S  E  S Q    E  E  S S S S    S  E  S Q    E  S S S S S   S    E   E   Q    H         
--7s-8------------8--8-8-----|--7s-8------------8---8-8-------|---------11-------------|
--7s-8--8---------8--8-8-----|--7s-8--8---------8---8-8-------|---------11-------------|
--7s-8--8---------8--8-8-----|--7s-8--8---------8---8-8-------|------------------------|
-----------------------------|--6s-7--7-----------------------|--8--10-----------------|
-------------------------8-8-|--------------------8-----8s-10-|------------------------|
-----------------------------|--------------------------------|------------------------|


                                          start here for rest of checking                       
  E   E  Q    E  S  S   S S  S   S     S  E                               S Q    E  E  S S S S  
-----------------------10-8---------|--7s-8-------------------------------8---------8--8-8-----|
-----------------8-(0)-10-8---------|--7s-8-------------------------------8---------8--8-8-----|
-----------------8-----10-8---------|--7s-8-------------------------------8---------8--8-8-----|
--8--10-----------------------------|----------------------------------------------------------|
------------------------------------|----------------------------------------------------------|
----------------------------(0)-(0)-|------------------------------------------------------8-8-|


  S  E  S Q    E  E  S S E      Q    E   E   Q.      E     E   E  E   E   Q     S  S  E   
--7s-8--8---------8--8-8----|--10-------10--10------10--|--------------------------------|
--7s-8--8---------8--8-8----|--10-------10--10------10--|-----15-----15--15----14-15--x--|
--7s-8--8---------8--8-8----|--10-------10--10------10--|-----15-----15--15----14-15--x--|
----------------------------|---------------------------|-----15-----15--15----14-15--x--|
-------------------------8--|---------------------------|--------------------------------|
----------------------------|---------------------------|--------------------------------|


  E   E  E   E   E    E   S S E      E    E   E   S   S  S S  S  S E   E   
----------------11----------------|------10--10--10h-11-10-8--------------|
----------------11------------8~--|--L~--10--10--10h-11-10-8--------------|
--------------------------x-x-8~--|--L~--10------10h-11-10-8--------------|
---------8--10------------x-x-----|--------------------------------8--10--|
-----10-------------(10)----------|--------------------------10-10--------|
----------------------------------|---------------------------------------|


  Q     E   S  S E   E  S S  S   S     S S  S  S    E.  S  E   E   S E.    
-------11--------8--10----x-10h-11-|--10-8----------8---8-----------------|
-------11--------8--10----x-10h-11-|--10-8----------8---8-----------------|
-----------------8--10----x-10h-11-|-----8-------8g10---8-----10b----8b---|
-----------------------------------|----------------------10--------------|
-----------10-10-------------------|-------10-10--------------------------|
-----------------------------------|--------------------------------------|


   ^                                                                           
   E   S  S S S  S  S  E   E  S  S E      E    E  E   S   S  S S  S  S E   E   
----------------------11---------------|------10-----10h-11-10-8--------------|
----------------------11-----------8~--|--L~--10-----10h-11-10-8--------------|
-------------------10--------------8~--|--L~--10-----10h-11----8--------------|
--10--------8-8-10------------x--x-----|-------------------------10----8--10--|
------10-10---------------10-----------|----------------------------10--------|
---------------------------------------|--------------------------------------|


                                                           ^             
  E   E    E.   S E   E  E   S   S    S E  S  S S  E   E   E   S  E   S  
----------11------8--10-----10h-11-|----8--8-10-------------------------|
----------11------8--10-----10h-11-|--8-8--8-10-8-----------------------|
------------------8--10-----10h-11-|--8-8--8-10-8-----------------------|
-----------------------------------|--------------10--10--10--10-10--10-|
-----(0)-------10------------------|------------------------------------|
-----------------------------------|------------------------------------|


   Q       E  E  E   E  E   E        E   S  S    E   S  S    E  E   E.   S   
--11---------------------------|-----8-----------8-----------8------8---(8)-|
--11---------------------------|-----8-----------8-----------8------8---(8)-|
-------------------------------|--8g10--------8g10--------8g10--8--10----8--|
--------------8--L--10--8--10--|--------------------------------------------|
--------8g10-------------------|--------10-10-------10-10-------------------|
-------------------------------|--------------------------------------------|


                                                           ^       ^           ^   
   Q      E   E     S  S  S  S S   S  S S    S S  S  S E   E    S  S  S  S E   E   
------------------------------------------|--8------------------------------------|
---------11-----------------10------------|---------------------------------------|
-------------10br--10p-8----10--------8-9-|----8----------------------------------|
--10~-------------------------------------|------10----8--10~---L~-8-------8--10--|
-------------------------10------(10)-----|---------10---------------10-10--------|
------------------------------------------|---------------------------------------|


   E   E   E.  S S  E  S   S  S S S    S S S S  S   S  S  S   E    S  S     S  S  S  S  
------11--10-------11--8h-10--------|----8------------11-------------------------------|
------11--10---8----8---------------|--8---8-8-11s-13----13~--L~--11-------------------|
----------10---8----8-----------8-9-|--------------------------------12-10g11-10s-8----|
--10-------------------------10-----|-----------------------------------------------10-|
------------------------------------|--------------------------------------------------|
------------------------------------|--------------------------------------------------|


                                |--3-|                                                    
  E   E    S  S  E  E   E    E  S  S S     S   S   S  S  S  S  S S S S  E      S  S S  S  
---------------------------------------|-----------------------------8-------------------|
---------------------------------------|-----(12)----------10----8-----------------------|
--8~--Lb-----------------------------8-|--10--11--10p-8----10----8-9---(9)---------------|
----------10p-8-----8--10~---L--8-10---|----------------10----10--------------------8----|
----------------10---------------------|------------------------------------8g10-10---10-|
---------------------------------------|-------------------------------------------------|


  E  E  S S S S E   E  E   E     E  E  S S S S E   E  S  S  S S  
-----8--8-8-----7S--8--7S--8--|--L--8--8-8-8-8-7S--8------------|
-----8--8-8-8-8-7S--8--7S--8--|--L--8--8-8-8-8-7S--8------------|
-----8--8-8-8-8-7S--8--7S--8--|--L--8--8-8-8-8-7S--8------------|
------------7-----------------|-----------------------------7---|
--8---------8-----------------|-----------------------x-(8)---8-|
------------------------------|---------------------------------|


                              |---3--|                                                  
   E    E    E    S S  S   S  S   S  S  S  S S S    S S   S  S E   E  S S S S S S  S S  
--11b--11b---8---10-8----------------------------|--8----------------------------------|
--10b--10b---8---10-8-----11-----------10--------|-------------------------------------|
------------(0)--10-8-12b----12p-10----10----8-9-|----8b-------------------------------|
------------------------------------------10-----|-------10----8--10--8-8-8-8-L-8------|
------------------------------------10-----------|----------10--------------------10-9-|
-------------------------------------------------|-------------------------------------|


  E  E  S S S S E   E   E   E     E  E  S S S S E   E  E  E      Q    E   E   Q     Q      
-----8--8-8-----7S--8-------8--|--L--8--8-------7S--8-----9--|--10-------10--10-----------|
-----8--8-8-8-8-7S--8-------8--|--L--8--8-8-8-8-7S--8-----9--|--10-------10--10----(0)----|
-----8--8-8-8-8-7S--8-------8--|--L--8--8-8-8-8-7S--8-----9--|--10-------10--10----(0)----|
--------7-7-7-7-6S--7--(7)-----|--------7-7-7-7-6S--7-----8--|---9--------9---9----(0)----|
--8-------------------------8--|-----------------------------|--10-------10--10-----------|
-------------------------------|-----------------------------|----------------------------|


   E  E   E   E   E   E   E   E      Q     Q     E   E   Q        Q     Q     E   E   E   E   
--10-----10------12------12--13--|--15----15----14--15---L----|--15----15----14--15---L--15--|
--10--9--10--11--12--11--12--13--|--15----15----14--15---L----|--15----15----14--15---L--15--|
--10--9--10--11--12--11--12--13--|--15----15----14--15---L----|--15----15----14--15---L--15--|
---9--8---9--10--11--10--11--12--|--14----14----13--14---L----|--14----14----13--14---L--14--|
---------------------------------|----------------------------|------------------------------|
---------------------------------|----------------------------|------------------------------|


   E   E    E.    S   E    E   S  E   S     E   S  S S  S  S  S   S  S  S   S   Q     
---L-------17---(17)------17--17-17--17-|--17--17-17---17-17-----17-17-17------------|
---L--(0)--16----16-------16--16-16--16-|--16--16-16---16-16-----16-16-16------------|
---L--(0)--15----15--(0)--15--15-15--15-|--15--15-15---15-15-(0)-15-15-15-(15)b------|
---L------------------------------------|--------------------------------------------|
----------------------------------------|--------------------------------------------|
----------------------------------------|--------------------------------------------|


   E    E   Q    E      E   E   E      E   E   E    E   E   E    E   E    
-----------------------------------|-------------------------------------|
--11b---L\-----------------11------|--11--13--11b--13---L---L~---L---L\--|
-----------------x/--9g12------12--|-------------------------------------|
-----------------x/----------------|-------------------------------------|
-----------------------------------|-------------------------------------|
-----------------------------------|-------------------------------------|


  S  S  S  S S  S  E    T  T  T  T S  S S S  E     Q.       E    E   E   E    E    
--8----------8--------------------------8-------|---------------------------------|
----11-----8---11-----------------------8-------|---------------------------------|
-------10b--------10b--10p-8-------8-10---8-----|---------------------------------|
-----------------------------10-------------10--|--8b------10~---L----------------|
--------------------------------10--------------|-------------------10\-----------|
------------------------------------------------|------------------------5/--17\--|


   E    E   Q    E   E    E.   S     Q      S  S  E    Q.      S  S  
---------------------------------|----------------------------------|
--16b---L\----------18b--18---16-|---------------16b---L---------16-|
---------------------------------|--17~----15-17--------------17----|
---------------------------------|----------------------------------|
---------------------------------|----------------------------------|
---------------------------------|----------------------------------|


   E    E    H          S  E.       S  E.    E.   S  Q.       E       Q.       E    Q.      E    
--------------------------------|--13-----------------------------|--13b------13b---L------11b--|
--18b---Lb---L~---------L-------|-----16b----L------13~-------L\--|-----------------------------|
---------------------------x\---|----------------15---------------|-----------------------------|
---------------------------x\---|---------------------------------|-----------------------------|
--------------------------------|---------------------------------|-----------------------------|
--------------------------------|---------------------------------|-----------------------------|


    E      S   S  E   E    E  S  S  S S  S  S    S S  E    E   E   S S S   S E    S  S  
---13br----Lp-11S-8--11b---L--8-------8-------|--8---11b---L--11b--8---8h-11-8~--------|
--(13)br--13--------------------11p-8-------8-|----8-----------------8-----------11p-8-|
----------------------------------------10b---|----------------------------------------|
----------------------------------------------|----------------------------------------|
----------------------------------------------|----------------------------------------|
----------------------------------------------|----------------------------------------|


   S   S S  S Q      E   E    S S S S     S   S   S    S  S  S  S  S   S   S  S  S   S  S  E   
----------------------------------8---|--11b-11b-11pb-11\-------8------------11-----------11--|
--------------------------------8---8-|---------------------------(8)-11s-13----13~--L-13-----|
--10b-10-8----8~--------10b---L-------|---------------------(0)-------------------------------|
-----------10-------10----------------|---------------------(0)-------------------------------|
--------------------------------------|-------------------------------------------------------|
--------------------------------------|-------------------------------------------------------|


   Q.       E    Q.      E        Q      E.    S   Q      Q      
--13b------13b---L-----------|---13b-----L----13b--L-----13b----|
------------------------(0)--|--(13)-----L---(13)--L----(13)----|
------------------------(0)--|----------------------------------|
-----------------------------|----------------------------------|
-----------------------------|----------------------------------|
-----------------------------|----------------------------------|


   E.    S  E    S  S  E    S  S  S  S  S  S    E  E   S  S S S  S  S S S  S  S S S  
--13b---11-13b--13-11-13b--13-11----11-------|--8--8--------8-8-----8-8-8-------8-8-|
--13----11-13---13-11-13---------13----13S-8-|--8--8------8---8-11b-8-8-8-----8-8-8-|
---------------------------------------------|--------10b-----------------10b-------|
---------------------------------------------|--------------------------------------|
---------------------------------------------|--------------------------------------|
---------------------------------------------|--------------------------------------|


  S S S  S S S  S  S S S  S  S  S  S S  S     S S  S  S  S S  S   T T  S  S  S S S  S S  S   
--8-8-8-10-8-------8---8-------------8-10-|--11-------8------------------------8-L----------|
----8-8-10-8-8-11b-8-8-8-----8-----8-8-10-|--10-8-11b---11-8-------------10----8-L----8-----|
-------------------------10b---10b--------|------------------10b--L-8----10-----------8-10b-|
------------------------------------------|---------------------------10----10-----10-------|
------------------------------------------|-------------------------------------------------|
------------------------------------------|-------------------------------------------------|


   S S  S   S   S S  S S  E   E   S E.       E   E   S  S  S  S  Q    Q     
-----------------------------------------|----------11-11-11-11-11---------|
-----------------------------------------|----------11-11-11-11-11---------|
--10-8-10------10-8----------10b----8b---|---------------------------------|
----------(10)------10-8-10--------------|--10---x-------------------------|
-----------------------------------------|---------------------------------|
-----------------------------------------|---------------------------------|


                                                     ^                                         
  E   E  S S  S  S  S  S  E   E.   S    H        E   S  S   S  S  S  S     Q    Q    H         
-------------11-11-------11--11---11-|---------------------11-11-11-11-|--11------------------|
-------------11-11-------11--11---11-|---------------------11-11-11-11-|--11------------------|
-------------------------------------|---------------------------------|----------------------|
-----10-------------x-10-------------|--------------10-----------------|----------------------|
---------0-0-------------------------|-----------------(0)-------------|----------------------|
------8------------------------------|---------------------------------|----------------------|


                  ^                               ^   ^           
  E   E   E.   S  E   E   Q       E   E   E.   S  E   E   E.   S  
---------11---11-----11--11----|---------11---11---------11---11-|
---------11---11-----11--11----|---------11---11---------11---11-|
-------------------------------|---------------------------------|
-----10----------10------------|-----10----------10--10----------|
-------------------------------|---------------------------------|
-------------------------------|---------------------------------|


      PMPM  ^   ^        PM                                                   
  E   S S   E   E   E.   S  E   S  S     Q    E   E   E     S  S  S  S  S  S  
-------------------11----------11-11-|--11-----------------------------------|
-------------------11----------11-11-|--11-----------------------------------|
-------------------------------------|-------------------8g10p-8-10p-8-------|
-----10-8--10--10-------10-10--------|---------------------------------10p-8-|
-------------------------------------|-----------(0)-------------------------|
-------------------------------------|---------------------------------------|


  S  E  S Q    E  E  S  S S S    S  E  S Q    E  S S S S  S   S   
--7s-8--8---------8--7s-8-----|--7s-8--8---------8---8-8---------|
--7s-8--8---------8--7s-8-----|--7s-8--8---------8---8-8---------|
--7s-8------------8--7s-8-----|--7s-8------------8-x-8-8-(0)-(0)-|
--6s-7------------7--6s-7-7---|--6s-7------------7-x-7-7---------|
----------------------------8-|----------------------------------|
------------------------------|----------------------------------|


  E   E   E    S    S  Q    E   S  S    E   E  Q    E  S  S  S S  S   S   
---------11--------------------------|-----------------8-----8-8---------|
---------11--------------------------|-----------------8-----8-8---------|
-------------------------------------|-----------------8-(0)-8-8-(0)-----|
--8--10-------(x)--(x)----------x----|--8--10----------------------------|
----------------------------------10-|-------------------------------(8)-|
-------------------------------------|-----------------------------------|


  S  E  S Q    E  S S S S E     S  E  S Q    E  S S S S E     S   E.  E   E   Q.      E   
--7s-8--8---------8---8-8----|--7s-8--8---------8---8-8----|--9s-10------10--10------10--|
--7s-8--8---------8---8-8----|--7s-8--8---------8---8-8----|--9s-10------10--10------10--|
--7s-8------------8-x-8-8----|--7s-8------------8-x-8-8----|--9s-10------10--10------10--|
--6s-7------------7-x-7-7----|--6s-7------------7-x-7-7----|--8s--9-------9---9----------|
--------------------------8--|-----------------------------|-----------------10----------|
-----------------------------|-----------------------------|-----------------------------|


    Q       Q       Q       S  S  E     E   E  E   E   E   E     S   S E    
-------------------------------------|----------------11-------------------|
---11------11------11------11--------|----------------11---------------8~--|
--(12)----(12)----(12)----(12)-------|--------------------(0)----------8~--|
-------------------------------------|---------8--10------------(x)-10-----|
-------------------------------8-10--|-----10------------------------------|
-------------------------------------|-------------------------------------|


  E   S S S S  S   S  S S  S  S E   E     Q     E.    S  E   E  S  S   S   S  
-----10-------10h-11-10-8--------------|-------11--------8--10--------10h-11-|
--L--10-------10h-11-10-8--------------|-------11--------8--10--------10h-11-|
--L--10-------10h-11-10-8--------------|-----------------8--10----(0)-10h-11-|
--------x-8-9-------------------8--10--|--------------------------(0)--------|
---------------------------x-10--------|------------(10)---------------------|
---------------------------------------|-------------------------------------|


   S S  S  S    E.  S  E   E   S E.       E   E  E   E   E    E   S S E    
-----8----------8---------------------|-----------------11----------------|
--10-8----------8---8-----------------|-----------------11--------x-x-8~--|
--10-8-------8g10---8-----10b----8b---|---------------------------x-x-8~--|
----------------------10--------------|--10------8--10--------------------|
--------x-10--------------------------|------10-------------(10)----------|
--------------------------------------|-----------------------------------|


  E   E  E   S   S  S S  S  S E   E     E   E   E    S   S E   E  S  S   S   S  
-----10-----10h-11----8--------------|---------11-------------10--------10h-11-|
--L--10-----10h-11-10-8--------------|---------11----------8--10----(0)-10h-11-|
--L--10-----10h-11----8--------------|---------------------8--10--------10h-11-|
------------------------10----8--10--|-----10----------------------------------|
---------------------------10--------|-------------(10)-10---------------------|
-------------------------------------|-----------------------------------------|


                     >                                                                 
   S E  S  S S  S S  S  S  S  S  S  E.       E   S  S   E   E   S  S  E   S  S  S   S  
-----8--8--8-8---------------------------|--11--11---------11---L-11-----11-11--------|
--10-8--8--8-8---------------------------|--11--11---------11---L-11-----11-11--------|
--10-8--8-10-8---------------------(0)---|---------(0)-------------------------(0)----|
---------------10-8-10-10-10-10-10-------|-------------10--10--------10------------10-|
-----------------------------------------|--------------------------------------------|
-----------------------------------------|--------------------------------------------|


   S  S  S  S  S  S  S  S  S  S  S  S  S  S  S  S     E.   S  S  S  E   S  S  S  S  S  S  S  S  
--11-------11-------11-11-------11----11----------|--15---15-------18---L-18----------15-------|
--11-------11-------11-11-------11----11-11-------|--16---16-------16---L-16----------16-------|
--------------------------------------------------|--15---15-------15---L-15----------15-------|
-----10-10----10-10-------10-10----10-------10-10-|--------------------------------------------|
--------------------------------------------------|----------15-15-----------15-15-15----15-15-|
--------------------------------------------------|--------------------------------------------|


                                             PM                                               
   S  S  S  S  S  S  S  S  S  S  S  S  S  S  S  S     E   E   S  E   S  S  S  S  S  S  E   S  
--11-------11-------11-------------------11-------|----------11-11--10-------------11-11--10-|
--11-------11-------11-11----------------11-------|----------11-11--10-------------11-11--10-|
--------------------------------------------------|------------------------------------------|
-----10-10----10-10-------10-10-10-10-10----10-10-|--10--10------------10-10-10-10-----------|
--------------------------------------------------|------------------------------------------|
--------------------------------------------------|------------------------------------------|


   E   E   S  S  S  S  S  S  S  S  S  S  S  S     S  S  S  S  S  E    S   S  S  S  S  S  S E   
----------11-11-------------11----11-11-10----|--------11----11-11-------11-11-11-11-15-13----|
----------11-11-------------11----11-11-10----|--------11----11-11-------11-11-11-11-11-11----|
----------------------------------------------|-----------------------------------------------|
--10--10--------10-10-10-10----10----------10-|--10-10----10--------(10)----------------------|
----------------------------------------------|-----------------------------------------------|
----------------------------------------------|-----------------------------------------------|


  S S  E  E  S S  E  E  Q      
-----------------------------||
-----------------------------||
-----------------------------||
--8-8-10-----8-8-10----------||
-----------------------------||
-----------------------------||




Duration Legend
---------------
W - whole
H - half
Q - quarter
E - 8th
S - 16th
T - 32nd
X - 64th
. - note dotted
|-n-|  - n-tuplets


Tablature Legend
----------------
L - tied note
x - dead note
g - grace note
(n) - ghost note
> - accentuded note
NH - natural harmonic
AH - artificial harmonic
TH - tapped harmonic
SH - semi harmonic
PH - pitch harmonic
h - hammer on
p - pull off
b - bend
br - bendRelease
pb - preBend
pbr - preBendRelease
brb - bendReleaseBend
\n/ - tremolo bar dip
\n - tremolo bar dive
-/n - tremolo bar Release up
/n\ - tremolo bar inverted dip
/n - tremolo bar return
-\n - tremolo bar Release down
S - shift slide
s - legato slide
/ -  slide into from below or out of upwards
\ -  slide into from above or out of downwards
~ - vibrato
W - wide vibrato
tr - trill
TP - tremolo picking
T - tapping
S - slap
P - pop
< - fade in
^ - brush up
v - brush down
Related for My Way Down tab