Song name
# A B C D E F G H I J K L M N O P Q R S T U V W X Y Z

Chris Hoyle - Unititled tab

hoyle chris-unititled.
Tabbed by skatelabskater@msn.com-chris hoyle.
  

  Intro 2(x)
e------------------------------------
b------------------------------------
g---2---0----0-----0-----------------
d--2---2----2-----0--(2x)------------
a-0-0-3--0-2--0--2-------------------
e---------------3--------------------

e------------------------------------
b----0-------0-------0---0---0-------
g---2--0----0----0--2---0---0--------
d--2--2----2----0--2---2---2---------
a-0--3-0-2--------0---3---2----------
e-------------3----------------------

chours
e---------------------------
b--0--0--0000--0--0--0000--0--0--0000--0--0--0000-
g--2--2--2222--0--0--0000--0--0--0000--0--0--0000-
d--2--2--2222--2--2--2222--2--2--2222--0--0--0000-
a--0--0--0000--3--3--3333--2--2--2222--2--2--2222-
e--------------------------------------3--3--3333-
and thats pretty much it
pretty simple
intro
chours
intro
chours 
intro 
:: Ultimate Guitar Archive :: 
http://www.ultimate-guitar.com 

Tap to rate this tab
# A B C D E F G H I J K L M N O P Q R S T U V W X Y Z