Song name
# A B C D E F G H I J K L M N O P Q R S T U V W X Y Z

Chris Isaak - Graduation Day tab

Help us improve GuitareTab! Take a short survey!
----------------------------------------------------------------------
                 GRADUATION DAY (Solo) - Chris Issak
----------------------------------------------------------------------
Tabbed By: Kris Pruden
Tuning: Standard

I couldn't find any tabs for the solo to this song anywhere, so I
thought I'd try my hand at tabbing it.  This is my first tab ever,
but I think it's right; it sounds pretty good when I play along...

  Em             C            G             D           Em
e|---------------------12-----10-----7p5-5h7--------10---------------|
b|------9-11--9-----------------------------------10-----------------|
g|--10p9-------------------------------------------------------------|
d|-------------------------------------------------------------------|
a|-------------------------------------------------------------------|
E|-------------------------------------------------------------------|

  Em             C            G             D           Em
e|---------------------14-----10-----15-14--10---15-14--12-----------|
b|-------------------------------------------------------------------|
g|------9-11--9------------------------------------------------------|
d|--10p9-------------------------------------------------------------|
a|-------------------------------------------------------------------|
E|-------------------------------------------------------------------|
Related for Graduation Day tab