Song name
# A B C D E F G H I J K L M N O P Q R S T U V W X Y Z

Chris Isaak - I Wonder tab

I Wonder
Chris Isaak
Standard
JJ Murphy

INTRO

e|--------------------------|
B|--------------------------|
G|------0--5p7h5-2-0--0h2p0-|
D|-0-0h2--------------------|
A|--------------------------|
E|--------------------------|


Verse/Chorus

   When I...that...
e|------1---3------3----|
B|-1----1---3-1----3----|
G|-0----2---0-2----0----|  repeat
D|-2----3---0-2----0----|
A|-3--------2------2----|
E|----------3------3----|
        ^         ^


stuff in the background:

(The intro repeated but one string down.)
  ~1:15
e|-------------------------|
B|-------------------------|
G|-------------------------|
D|------0---0-0h2-2-5-5/7--|
A|-0-0h2-------------------|
E|-------------------------|
Tap to rate this tab
# A B C D E F G H I J K L M N O P Q R S T U V W X Y Z