Song name
# A B C D E F G H I J K L M N O P Q R S T U V W X Y Z

Chris Isaak - I Wonder tab

#----------------------------------PLEASE NOTE--------------------------------#
#This file is the author's own work and represents their interpretation of the#
#song. You may only use this file for private study, scholarship, or research.#
#-----------------------------------------------------------------------------#
#-- File created with Instab - http://www.pconline.com/~smcarey/instab.html --#
#-----------------------------------------------------------------------------#

Author/Artist: Chris Issac
Title: I Wonder
Transcribed by: Saverain

h hammer on
/ slide up
\ slide down
b bend
r release bend
v vibrate

Standard Tuning

----------|--------------------------------------|----------------------------|
----------|--------------------------------------|----------------------------|
----------|-------0-------7b9--5/7\5-------------|----------------------------|
----------|-0-0h2------------------------5/7\5---|----------------------------|
----------|--------------------------------------|----------------------------|
----------|------------3-------------------------|----------------------------|
       Intro

----------|-------------------------------------------------------------------|
----------|-------------------------------------------------------------------|
----------|-0-----2-----0----0----------0---5-2--0--0----2---0---0---------0--|
----------|-2-----3-----0----2----0-0h2-------------2----3---0---2---0-0h2----|
----------|-3-----3-----2----3----------------------3----3---2---3------------|
----------|-------------------------------------------------------------------|
       Verse

------------|-----------------------------------------------------------------|
------------|-----------------------------------------------------------------|
---0-0h2-5--|-----------------------------------------------------------------|
------------|-----------------------------------------------------------------|
------------|-----------------------------------------------------------------|
------------|-----------------------------------------------------------------|


-----|-------------------------|--|-------------------|-----------------------|
-----|-10---8----5---------8v--|--|--13-----8---------|-----------------------|
-----|-9----7----5----7/9------|--|--14-----7--7-7--7-|-----------------------|
-----|-------------------------|--|-------------------|-----------------------|
-----|-------------------------|--|-------------------|-----------------------|
-----|-------------------------|--|-------------------|-----------------------|
    Chorus                          Chorus End

-----|-------------------------------------|----------------------------------|
-----|-------------------------------------|----------------------------------|
-----|-0--------0-----0-0--0-0--0--5-2--0--|----------------------------------|
-----|-2--0-0h2-------0-0--0-0--2----------|----------------------------------|
-----|-3--------------2-2--2-2--3----------|----------------------------------|
-----|-------------3-----------------------|----------------------------------|
    PreVerse

-|----------------------------------------------------------------------------|
-|----------------------------------------------------------------------------|
-|--------------0-0-----0--------0--5/7\5---5---2---0---7b9--5/7\5-----5h7/9--|
-|----------0h2---0h2---0h2-0----2--5/7\5---5---3---2--------------5h7--------|
-|-----3--3--------------------3-3--------------------------------------------|
-|-3h5------------------------------------------------------------------------|
    Solo          Pluck.....                Pluck....

-------------------------------------------------------------8-8/12--10-------|
---8--8/13--13/15\13-----------------------------------5-5/8-------------8----|
-9----9/14--14/16\14--14-----------7b9r7--5------5-5/7-------------------9--7-|
----------------------15-12-12/14------------5/7------------------------------|
-------------------------14-14/15---------------------------------------------|
------------------------------------------------------------------------------|
                     Pluck....

-------|--------|----------|-------|--------|---------------------------------|
----8--|--------|----------|-------|--------|---------------------------------|
-/9----|--------|----------|-------|--------|---------------------------------|
-------|--------|----------|-------|--------|---------------------------------|
-------|--------|----------|-------|--------|---------------------------------|
-------|--------|----------|-------|--------|---------------------------------|
         Chorus   PreVerse   Verse   Chorus

--------|--------------------------|--|-------------------0--0---0---|--------|
--------|--------------------------|--|----------------0--1--3---1---|--------|
--------|-0--------0-----0-0--0-0--|--|-0--------0-----0--0--0---0---|--------|
--------|-2--0-0h2-------0-0--0-0--|--|-2--0-0h2-----------------2---|--------|
--------|-3--------------2-2--2-2--|--|-3----------------------------|--------|
--------|-------------3------------|--|-------------3----------------|--------|
     Ending
Tap to rate this tab
 
# A B C D E F G H I J K L M N O P Q R S T U V W X Y Z