Chris Isaak - Blue Hotel tab

Blue Hotel
Chris Isaak
1987

Tabbed by Samoth


INTRO / MAIN RIFF
-----------------

|-6-|-6--6-|-6-|
|-6-|-6--8-|-7-|
|-6-|-6--8-|-8-|
|-8-|-8--8-|-8-|
|-8-|-8--6-|-6-|
|-6-|-6--6-|-6-|



RIFF 1
------

|---------------2--1-|
|---------------2--1-|
|---------------3--2-|
|---------------4--3-|
|-----6-8-9--8--4--3-|
|-6-------------2--1-|



RIFF 2
------

|---------|-----2-|-----2-|-----|-1-----1-|-----|-1-|
|-------2-|-------|-2-----|-2---|---1-----|-1---|-1-|
|-2-------|-2-----|---2---|---2-|-----2---|---2-|-2-|
|---3-----|---3---|-------|-----|---------|-----|-3-|
|-----3---|-------|-------|-----|---------|-----|-3-|
|---------|-------|-------|-----|---------|-----|-1-|



RIFF 3
------

|-6-|-----------|-6-|
|-6-|-------6---|-7-|
|-6-|-----6---8-|-8-|
|-8-|-6-8-------|-8-|
|-8-|-----------|-6-|
|-6-|-----------|---|



SOLO
----
     
|-6-|-----------|-6--6-|-----------------------|
|-6-|-----------|-6--6-|-----------------------|
|-6-|-----------|-6--8-|-----------------------|
|-8-|-----------|-8--8-|-----------------------|
|-8-|-------6-8-|-8--8-|-------6-8---8-6-------|
|-6-|-6-9-6-----|-6--6-|-6-9-6------------9--6-|

|-----------|-6--6-|--------------------|
|-----------|-6--6-|--------------------|
|-----------|-6--8-|--------------------|
|-----------|-8--8-|--------------------|
|-------6-8-|-8--8-|-------6-8---8-6----|
|-6-9-6-----|-6--6-|-6-9-6------------9-|

|---|
|---|
|---|
|---|
|---|
|-2-|



Song structure
--------------

Intro / Main Riff x2
Riff 1 x3
Main Riff x2
Riff 2
Main Riff x2
Riff 3 x2
Riff 2
Main Riff x2
Riff 1 x3
Solo
Riff 1
Main Riff x4
Riff 1
Main Riff x2
Outro (Main Riff x1 with faster rhythm son 1rst chord)



Lyrics
------

Blue Hotel
On a lonely highway
Blue Hotel
Life don't work out my way

Blue Hotel
On a lonely highway
Blue Hotel
Life don't work out my way
I wait alone each lonely night

Blue Hotel
Blue Hotel

Blue Hotel
Every room is lonely
Blue Hotel
I was waiting only
The night and the light of her lonely dream

Blue Hotel
Blue Hotel

Blue Hotel
On a lonely highway
Blue Hotel
Life don't work out my way
I wait alone each lonely night

Blue Hotel
Blue Hotel

Tap to rate this tab
 
# A B C D E F G H I J K L M N O P Q R S T U V W X Y Z