Chris Isaak - Wicked Game tab

-------------------------------------------------------------------------
			     Wicked Game - Chris Isaak
-------------------------------------------------------------------------


Tabbed by: tom murphy


Tuning: standard


           Bm   A         E          Bm  A         E
e|--------------------------------------------------------------------0--|
B|---------6b7-----pb7\6-------------6b7---5--3--2p0----------------0----|
G|---pb4\3----------------4----pb4\3--------------------2---------1------|
D|----------------------------------------------------4------2--2--------|
A|-----------------------------------------------------------------------|
E|-----------------------------------------------------------------------|



   Bm                   A                     E        
e|------2------0-------------0----------------------0--------------------|
B|--------3------3----2p0------0------------------0-------0----0---------|
G|----------4------4------4------4------2-------1---------1h2--2-/-4-----|
D|---4-------------------------------4-----2--2--------------------------|
A|-----------------------------------------------------------------------|
E|-----------------------------------------------------------------------|



************************************

| /   slide up
| \   slide down
| h   hammer-on
| p   pull-off
| ~   vibrato
| +   harmonic
| x   Mute note
| b   Bend
| pb  Pre-bend
| br  Bend release
| pbr Pre-bend release
| brb Bend release bend

************************************
Tap to rate this tab
 
# A B C D E F G H I J K L M N O P Q R S T U V W X Y Z